ISO-10303-21;
HEADER;
FILE_DESCRIPTION (( 'STEP AP203' ),
    '1' );
FILE_NAME ('9c21.STEP',
    '2022-07-07T09:30:28',
    ( '' ),
    ( '' ),
    'SwSTEP 2.0',
    'SolidWorks 2019',
    '' );
FILE_SCHEMA (( 'CONFIG_CONTROL_DESIGN' ));
ENDSEC;

DATA;
#1 = LOCAL_TIME ( 11, 30, 28.00000000000000000, #66 ) ;
#2 = CC_DESIGN_SECURITY_CLASSIFICATION ( #90, ( #198 ) ) ;
#3 = CLOSED_SHELL ( 'NONE', ( #71, #86, #257, #305, #100, #191, #125, #274, #23 ) ) ;
#4 = LOCAL_TIME ( 11, 30, 28.00000000000000000, #153 ) ;
#5 = ORIENTED_EDGE ( 'NONE', *, *, #29, .T. ) ;
#6 = PERSON_AND_ORGANIZATION ( #55, #194 ) ;
#7 = APPROVAL ( #206, 'NEURÈENÝ' ) ;
#8 = VERTEX_POINT ( 'NONE', #197 ) ;
#9 = AXIS2_PLACEMENT_3D ( 'NONE', #258, #42, #138 ) ;
#10 = APPROVAL_ROLE ( '' ) ;
#11 = DIRECTION ( 'NONE',  ( 0.000000000000000000, 0.000000000000000000, 1.000000000000000000 ) ) ;
#12 = PERSON_AND_ORGANIZATION ( #55, #194 ) ;
#13 = VERTEX_POINT ( 'NONE', #231 ) ;
#14 = EDGE_CURVE ( 'NONE', #229, #81, #182, .T. ) ;
#15 = CARTESIAN_POINT ( 'NONE',  ( -16.19999999999999929, 1.983927814618711846E-15, 10.20000000000000107 ) ) ;
#16 = DIRECTION ( 'NONE',  ( -0.000000000000000000, -0.000000000000000000, -1.000000000000000000 ) ) ;
#17 = DIRECTION ( 'NONE',  ( 1.000000000000000000, 0.000000000000000000, 0.000000000000000000 ) ) ;
#18 = CARTESIAN_POINT ( 'NONE',  ( 0.000000000000000000, 0.000000000000000000, 110.0000000000000000 ) ) ;
#19 = CARTESIAN_POINT ( 'NONE',  ( 0.000000000000000000, 0.000000000000000000, 10.00000000000000000 ) ) ;
#20 = CIRCLE ( 'NONE', #211, 16.00000000000000000 ) ;
#21 = PLANE ( 'NONE',  #54 ) ;
#22 = DIRECTION ( 'NONE',  ( 1.000000000000000000, 0.000000000000000000, 0.000000000000000000 ) ) ;
#23 = ADVANCED_FACE ( 'NONE', ( #102 ), #219, .F. ) ;
#24 = CC_DESIGN_PERSON_AND_ORGANIZATION_ASSIGNMENT ( #6, #82, ( #112 ) ) ;
#25 = DIRECTION ( 'NONE',  ( 0.000000000000000000, 0.000000000000000000, 1.000000000000000000 ) ) ;
#26 = CARTESIAN_POINT ( 'NONE',  ( 0.000000000000000000, 0.000000000000000000, 0.000000000000000000 ) ) ;
#27 = TOROIDAL_SURFACE ( 'NONE', #131, 16.19999999999999929, 0.2000000000000000111 ) ;
#28 = MANIFOLD_SOLID_BREP ( 'Zaoblit1', #3 ) ;
#29 = EDGE_CURVE ( 'NONE', #229, #254, #127, .T. ) ;
#30 = EDGE_CURVE ( 'NONE', #223, #122, #139, .T. ) ;
#31 = ORIENTED_EDGE ( 'NONE', *, *, #255, .F. ) ;
#32 = PERSON_AND_ORGANIZATION ( #55, #194 ) ;
#33 = ORIENTED_EDGE ( 'NONE', *, *, #35, .F. ) ;
#34 = AXIS2_PLACEMENT_3D ( 'NONE', #121, #25, #189 ) ;
#35 = EDGE_CURVE ( 'NONE', #254, #229, #20, .T. ) ;
#36 = EDGE_LOOP ( 'NONE', ( #201, #286 ) ) ;
#37 = PERSON_AND_ORGANIZATION ( #55, #194 ) ;
#38 = EDGE_LOOP ( 'NONE', ( #104, #175, #130, #128 ) ) ;
#39 = SHAPE_DEFINITION_REPRESENTATION ( #57, #264 ) ;
#40 = DIRECTION ( 'NONE',  ( 0.000000000000000000, 0.000000000000000000, 1.000000000000000000 ) ) ;
#41 = AXIS2_PLACEMENT_3D ( 'NONE', #80, #11, #107 ) ;
#42 = DIRECTION ( 'NONE',  ( 0.000000000000000000, 0.000000000000000000, 1.000000000000000000 ) ) ;
#43 = DIRECTION ( 'NONE',  ( 0.000000000000000000, 0.000000000000000000, 1.000000000000000000 ) ) ;
#44 = DIRECTION ( 'NONE',  ( 0.000000000000000000, 0.000000000000000000, 1.000000000000000000 ) ) ;
#45 = LINE ( 'NONE', #209, #156 ) ;
#46 = CARTESIAN_POINT ( 'NONE',  ( -16.00000000000000000, 0.000000000000000000, 110.0000000000000000 ) ) ;
#47 = CIRCLE ( 'NONE', #218, 20.00000000000000000 ) ;
#48 = EDGE_CURVE ( 'NONE', #307, #221, #68, .T. ) ;
#49 = AXIS2_PLACEMENT_3D ( 'NONE', #15, #177, #205 ) ;
#50 = ORIENTED_EDGE ( 'NONE', *, *, #284, .T. ) ;
#51 = CARTESIAN_POINT ( 'NONE',  ( -20.00000000000000000, 0.000000000000000000, 10.00000000000000000 ) ) ;
#52 = LOCAL_TIME ( 11, 30, 28.00000000000000000, #273 ) ;
#53 = DIRECTION ( 'NONE',  ( 1.000000000000000000, 0.000000000000000000, 0.000000000000000000 ) ) ;
#54 = AXIS2_PLACEMENT_3D ( 'NONE', #279, #116, #261 ) ;
#55 = PERSON ( 'NEURÈENÝ', 'NEURÈENÝ', 'NEURÈENÝ', ('NEURÈENÝ'), ('NEURÈENÝ'), ('NEURÈENÝ') ) ;
#56 = APPROVAL ( #293, 'NEURÈENÝ' ) ;
#57 = PRODUCT_DEFINITION_SHAPE ( 'NONE', 'NONE',  #112 ) ;
#58 = ORIENTED_EDGE ( 'NONE', *, *, #146, .F. ) ;
#59 = PERSON_AND_ORGANIZATION_ROLE ( 'classification_officer' ) ;
#60 = ORIENTED_EDGE ( 'NONE', *, *, #87, .T. ) ;
#61 = DATE_AND_TIME ( #151, #303 ) ;
#62 = DIRECTION ( 'NONE',  ( 0.000000000000000000, 0.000000000000000000, 1.000000000000000000 ) ) ;
#63 = APPROVAL_PERSON_ORGANIZATION ( #176, #173, #250 ) ;
#64 = AXIS2_PLACEMENT_3D ( 'NONE', #144, #282, #74 ) ;
#65 = EDGE_LOOP ( 'NONE', ( #155, #172 ) ) ;
#66 = COORDINATED_UNIVERSAL_TIME_OFFSET ( 1, 0, .AHEAD. ) ;
#67 = DIRECTION ( 'NONE',  ( -0.000000000000000000, -0.000000000000000000, -1.000000000000000000 ) ) ;
#68 = CIRCLE ( 'NONE', #298, 16.00000000000000000 ) ;
#69 = CARTESIAN_POINT ( 'NONE',  ( 0.000000000000000000, 0.000000000000000000, 0.000000000000000000 ) ) ;
#70 = DIRECTION ( 'NONE',  ( -0.000000000000000000, -0.000000000000000000, -1.000000000000000000 ) ) ;
#71 = ADVANCED_FACE ( 'NONE', ( #207 ), #27, .F. ) ;
#72 = FACE_OUTER_BOUND ( 'NONE', #36, .T. ) ;
#73 = DIRECTION ( 'NONE',  ( 0.000000000000000000, 0.000000000000000000, -1.000000000000000000 ) ) ;
#74 = DIRECTION ( 'NONE',  ( 1.000000000000000000, 0.000000000000000000, 0.000000000000000000 ) ) ;
#75 = ORIENTED_EDGE ( 'NONE', *, *, #145, .T. ) ;
#76 = CIRCLE ( 'NONE', #277, 0.2000000000000005107 ) ;
#77 = EDGE_CURVE ( 'NONE', #221, #254, #237, .T. ) ;
#78 = VERTEX_POINT ( 'NONE', #210 ) ;
#79 = APPROVAL_ROLE ( '' ) ;
#80 = CARTESIAN_POINT ( 'NONE',  ( 0.000000000000000000, 0.000000000000000000, 10.20000000000000107 ) ) ;
#81 = VERTEX_POINT ( 'NONE', #115 ) ;
#82 = PERSON_AND_ORGANIZATION_ROLE ( 'creator' ) ;
#83 = EDGE_LOOP ( 'NONE', ( #291, #292, #111, #31 ) ) ;
#84 = PERSON_AND_ORGANIZATION_ROLE ( 'creator' ) ;
#85 = DIRECTION ( 'NONE',  ( -1.000000000000000000, 0.000000000000000000, 0.000000000000000000 ) ) ;
#86 = ADVANCED_FACE ( 'NONE', ( #213 ), #137, .T. ) ;
#87 = EDGE_CURVE ( 'NONE', #13, #122, #47, .T. ) ;
#88 = CARTESIAN_POINT ( 'NONE',  ( 20.00000000000000000, 2.449293598294706513E-15, 10.00000000000000000 ) ) ;
#89 = CARTESIAN_POINT ( 'NONE',  ( 16.00000000000000000, 1.959434878635765131E-15, 110.0000000000000000 ) ) ;
#90 = SECURITY_CLASSIFICATION ( '', '', #224 ) ;
#91 = AXIS2_PLACEMENT_3D ( 'NONE', #93, #44, #22 ) ;
#92 = DIRECTION ( 'NONE',  ( 1.000000000000000000, 0.000000000000000000, 0.000000000000000000 ) ) ;
#93 = CARTESIAN_POINT ( 'NONE',  ( 0.000000000000000000, 0.000000000000000000, 110.0000000000000000 ) ) ;
#94 = FACE_BOUND ( 'NONE', #243, .T. ) ;
#95 = ORIENTED_EDGE ( 'NONE', *, *, #255, .T. ) ;
#96 =( NAMED_UNIT ( * ) SI_UNIT ( $, .STERADIAN. ) SOLID_ANGLE_UNIT ( ) );
#97 = CARTESIAN_POINT ( 'NONE',  ( 16.19999999999999929, 0.000000000000000000, 10.20000000000000107 ) ) ;
#98 = CC_DESIGN_APPROVAL ( #173, ( #112 ) ) ;
#99 = AXIS2_PLACEMENT_3D ( 'NONE', #161, #256, #162 ) ;
#100 = ADVANCED_FACE ( 'NONE', ( #94, #295 ), #21, .T. ) ;
#101 = UNCERTAINTY_MEASURE_WITH_UNIT (LENGTH_MEASURE( 1.000000000000000082E-05 ), #244, 'distance_accuracy_value', 'NONE');
#102 = FACE_OUTER_BOUND ( 'NONE', #180, .T. ) ;
#103 = APPLICATION_PROTOCOL_DEFINITION ( 'international standard', 'config_control_design', 1994, #242 ) ;
#104 = ORIENTED_EDGE ( 'NONE', *, *, #196, .F. ) ;
#105 = CIRCLE ( 'NONE', #9, 20.00000000000000000 ) ;
#106 = PERSON_AND_ORGANIZATION_ROLE ( 'design_supplier' ) ;
#107 = DIRECTION ( 'NONE',  ( 1.000000000000000000, 0.000000000000000000, 0.000000000000000000 ) ) ;
#108 = DATE_AND_TIME ( #113, #52 ) ;
#109 = ORIENTED_EDGE ( 'NONE', *, *, #235, .T. ) ;
#110 = APPROVAL_DATE_TIME ( #129, #56 ) ;
#111 = ORIENTED_EDGE ( 'NONE', *, *, #302, .F. ) ;
#112 = PRODUCT_DEFINITION ( 'NEZNÁMÝ', '', #198, #289 ) ;
#113 = CALENDAR_DATE ( 2022, 7, 7 ) ;
#114 = AXIS2_PLACEMENT_3D ( 'NONE', #203, #62, #266 ) ;
#115 = CARTESIAN_POINT ( 'NONE',  ( -16.19999999999999929, 1.983927814618711846E-15, 10.00000000000000000 ) ) ;
#116 = DIRECTION ( 'NONE',  ( 0.000000000000000000, 0.000000000000000000, 1.000000000000000000 ) ) ;
#117 = DIRECTION ( 'NONE',  ( -1.000000000000000000, 0.000000000000000000, 0.000000000000000000 ) ) ;
#118 = AXIS2_PLACEMENT_3D ( 'NONE', #169, #193, #168 ) ;
#119 = CARTESIAN_POINT ( 'NONE',  ( 0.000000000000000000, 0.000000000000000000, 110.0000000000000000 ) ) ;
#120 = CARTESIAN_POINT ( 'NONE',  ( 0.000000000000000000, 0.000000000000000000, 110.0000000000000000 ) ) ;
#121 = CARTESIAN_POINT ( 'NONE',  ( 0.000000000000000000, 0.000000000000000000, 10.00000000000000000 ) ) ;
#122 = VERTEX_POINT ( 'NONE', #296 ) ;
#123 = EDGE_CURVE ( 'NONE', #307, #229, #45, .T. ) ;
#124 = CARTESIAN_POINT ( 'NONE',  ( -16.00000000000000000, 0.000000000000000000, 10.20000000000000107 ) ) ;
#125 = ADVANCED_FACE ( 'NONE', ( #297 ), #185, .T. ) ;
#126 = CIRCLE ( 'NONE', #99, 16.19999999999999929 ) ;
#127 = CIRCLE ( 'NONE', #114, 16.00000000000000000 ) ;
#128 = ORIENTED_EDGE ( 'NONE', *, *, #123, .F. ) ;
#129 = DATE_AND_TIME ( #202, #4 ) ;
#130 = ORIENTED_EDGE ( 'NONE', *, *, #35, .T. ) ;
#131 = AXIS2_PLACEMENT_3D ( 'NONE', #276, #40, #17 ) ;
#132 = CALENDAR_DATE ( 2022, 7, 7 ) ;
#133 = ORIENTED_EDGE ( 'NONE', *, *, #14, .F. ) ;
#134 = CALENDAR_DATE ( 2022, 7, 7 ) ;
#135 = EDGE_LOOP ( 'NONE', ( #263, #75, #60, #204 ) ) ;
#136 = CC_DESIGN_PERSON_AND_ORGANIZATION_ASSIGNMENT ( #267, #84, ( #198 ) ) ;
#137 = CYLINDRICAL_SURFACE ( 'NONE', #200, 16.00000000000000000 ) ;
#138 = DIRECTION ( 'NONE',  ( 1.000000000000000000, 0.000000000000000000, 0.000000000000000000 ) ) ;
#139 = LINE ( 'NONE', #236, #262 ) ;
#140 = PLANE ( 'NONE',  #288 ) ;
#141 = DIRECTION ( 'NONE',  ( -0.000000000000000000, -0.000000000000000000, -1.000000000000000000 ) ) ;
#142 = AXIS2_PLACEMENT_3D ( 'NONE', #164, #301, #245 ) ;
#143 = CARTESIAN_POINT ( 'NONE',  ( 16.00000000000000000, 1.959434878635765131E-15, 10.20000000000000107 ) ) ;
#144 = CARTESIAN_POINT ( 'NONE',  ( 0.000000000000000000, 0.000000000000000000, 10.00000000000000000 ) ) ;
#145 = EDGE_CURVE ( 'NONE', #8, #13, #259, .T. ) ;
#146 = EDGE_CURVE ( 'NONE', #81, #78, #126, .T. ) ;
#147 = DIRECTION ( 'NONE',  ( 0.000000000000000000, 0.000000000000000000, 1.000000000000000000 ) ) ;
#148 = APPROVAL_PERSON_ORGANIZATION ( #12, #7, #79 ) ;
#149 = CIRCLE ( 'NONE', #241, 16.19999999999999929 ) ;
#150 = EDGE_LOOP ( 'NONE', ( #109, #50 ) ) ;
#151 = CALENDAR_DATE ( 2022, 7, 7 ) ;
#152 = EDGE_LOOP ( 'NONE', ( #249, #272, #251, #227 ) ) ;
#153 = COORDINATED_UNIVERSAL_TIME_OFFSET ( 1, 0, .AHEAD. ) ;
#154 = AXIS2_PLACEMENT_3D ( 'NONE', #26, #147, #53 ) ;
#155 = ORIENTED_EDGE ( 'NONE', *, *, #167, .F. ) ;
#156 = VECTOR ( 'NONE', #141, 1000.000000000000000 ) ;
#157 = DATE_TIME_ROLE ( 'creation_date' ) ;
#158 = ORIENTED_EDGE ( 'NONE', *, *, #123, .T. ) ;
#159 = APPLICATION_CONTEXT ( 'configuration controlled 3d designs of mechanical parts and assemblies' ) ;
#160 = COORDINATED_UNIVERSAL_TIME_OFFSET ( 1, 0, .AHEAD. ) ;
#161 = CARTESIAN_POINT ( 'NONE',  ( 0.000000000000000000, 0.000000000000000000, 10.00000000000000000 ) ) ;
#162 = DIRECTION ( 'NONE',  ( 1.000000000000000000, 0.000000000000000000, 0.000000000000000000 ) ) ;
#163 = DIRECTION ( 'NONE',  ( 1.000000000000000000, 0.000000000000000000, -0.000000000000000000 ) ) ;
#164 = CARTESIAN_POINT ( 'NONE',  ( 0.000000000000000000, 0.000000000000000000, 10.00000000000000000 ) ) ;
#165 = DIRECTION ( 'NONE',  ( 1.000000000000000000, 0.000000000000000000, 0.000000000000000000 ) ) ;
#166 = CYLINDRICAL_SURFACE ( 'NONE', #118, 20.00000000000000000 ) ;
#167 = EDGE_CURVE ( 'NONE', #122, #13, #105, .T. ) ;
#168 = DIRECTION ( 'NONE',  ( -1.000000000000000000, 0.000000000000000000, 0.000000000000000000 ) ) ;
#169 = CARTESIAN_POINT ( 'NONE',  ( 0.000000000000000000, 0.000000000000000000, 10.00000000000000000 ) ) ;
#170 = CIRCLE ( 'NONE', #34, 20.00000000000000000 ) ;
#171 = CC_DESIGN_PERSON_AND_ORGANIZATION_ASSIGNMENT ( #230, #253, ( #225 ) ) ;
#172 = ORIENTED_EDGE ( 'NONE', *, *, #87, .F. ) ;
#173 = APPROVAL ( #199, 'NEURÈENÝ' ) ;
#174 = APPROVAL_DATE_TIME ( #108, #7 ) ;
#175 = ORIENTED_EDGE ( 'NONE', *, *, #77, .T. ) ;
#176 = PERSON_AND_ORGANIZATION ( #55, #194 ) ;
#177 = DIRECTION ( 'NONE',  ( 1.224646799147353207E-16, 1.000000000000000000, -0.000000000000000000 ) ) ;
#178 = CC_DESIGN_PERSON_AND_ORGANIZATION_ASSIGNMENT ( #232, #106, ( #198 ) ) ;
#179 = DATE_AND_TIME ( #134, #1 ) ;
#180 = EDGE_LOOP ( 'NONE', ( #133, #33, #95, #58 ) ) ;
#181 = AXIS2_PLACEMENT_3D ( 'NONE', #240, #190, #85 ) ;
#182 = CIRCLE ( 'NONE', #49, 0.1999999999999987899 ) ;
#183 = APPROVAL_DATE_TIME ( #228, #173 ) ;
#184 = DIRECTION ( 'NONE',  ( -0.000000000000000000, -0.000000000000000000, -1.000000000000000000 ) ) ;
#185 = CYLINDRICAL_SURFACE ( 'NONE', #181, 16.00000000000000000 ) ;
#186 = FACE_OUTER_BOUND ( 'NONE', #65, .T. ) ;
#187 = VECTOR ( 'NONE', #16, 1000.000000000000000 ) ;
#188 = CARTESIAN_POINT ( 'NONE',  ( 0.000000000000000000, 0.000000000000000000, 0.000000000000000000 ) ) ;
#189 = DIRECTION ( 'NONE',  ( 1.000000000000000000, 0.000000000000000000, 0.000000000000000000 ) ) ;
#190 = DIRECTION ( 'NONE',  ( -0.000000000000000000, -0.000000000000000000, -1.000000000000000000 ) ) ;
#191 = ADVANCED_FACE ( 'NONE', ( #186 ), #278, .F. ) ;
#192 = APPLICATION_PROTOCOL_DEFINITION ( 'international standard', 'config_control_design', 1994, #159 ) ;
#193 = DIRECTION ( 'NONE',  ( -0.000000000000000000, -0.000000000000000000, -1.000000000000000000 ) ) ;
#194 = ORGANIZATION ( 'NEURÈENÝ', 'NEURÈENÝ', '' ) ;
#195 = CIRCLE ( 'NONE', #64, 20.00000000000000000 ) ;
#196 = EDGE_CURVE ( 'NONE', #221, #307, #271, .T. ) ;
#197 = CARTESIAN_POINT ( 'NONE',  ( 20.00000000000000000, 2.449293598294706513E-15, 10.00000000000000000 ) ) ;
#198 = PRODUCT_DEFINITION_FORMATION_WITH_SPECIFIED_SOURCE ( 'LIBOVOLNÝ', '', #225, .NOT_KNOWN. ) ;
#199 = APPROVAL_STATUS ( 'not_yet_approved' ) ;
#200 = AXIS2_PLACEMENT_3D ( 'NONE', #18, #70, #117 ) ;
#201 = ORIENTED_EDGE ( 'NONE', *, *, #48, .T. ) ;
#202 = CALENDAR_DATE ( 2022, 7, 7 ) ;
#203 = CARTESIAN_POINT ( 'NONE',  ( 0.000000000000000000, 0.000000000000000000, 10.20000000000000107 ) ) ;
#204 = ORIENTED_EDGE ( 'NONE', *, *, #30, .F. ) ;
#205 = DIRECTION ( 'NONE',  ( -1.000000000000000000, 1.224646799147353947E-16, 0.000000000000000000 ) ) ;
#206 = APPROVAL_STATUS ( 'not_yet_approved' ) ;
#207 = FACE_OUTER_BOUND ( 'NONE', #83, .T. ) ;
#208 = CC_DESIGN_APPROVAL ( #56, ( #90 ) ) ;
#209 = CARTESIAN_POINT ( 'NONE',  ( -16.00000000000000000, 0.000000000000000000, 110.0000000000000000 ) ) ;
#210 = CARTESIAN_POINT ( 'NONE',  ( 16.19999999999999929, 0.000000000000000000, 10.00000000000000000 ) ) ;
#211 = AXIS2_PLACEMENT_3D ( 'NONE', #300, #233, #299 ) ;
#212 = DIRECTION ( 'NONE',  ( 0.000000000000000000, -1.000000000000000000, 0.000000000000000000 ) ) ;
#213 = FACE_OUTER_BOUND ( 'NONE', #38, .T. ) ;
#214 = FACE_OUTER_BOUND ( 'NONE', #152, .T. ) ;
#215 = FACE_OUTER_BOUND ( 'NONE', #135, .T. ) ;
#216 = DIRECTION ( 'NONE',  ( 1.000000000000000000, 0.000000000000000000, 0.000000000000000000 ) ) ;
#217 = ORIENTED_EDGE ( 'NONE', *, *, #146, .T. ) ;
#218 = AXIS2_PLACEMENT_3D ( 'NONE', #188, #275, #165 ) ;
#219 = TOROIDAL_SURFACE ( 'NONE', #41, 16.19999999999999929, 0.2000000000000000111 ) ;
#220 = PRODUCT_RELATED_PRODUCT_CATEGORY ( 'detail', '', ( #225 ) ) ;
#221 = VERTEX_POINT ( 'NONE', #280 ) ;
#222 = MECHANICAL_CONTEXT ( 'NONE', #159, 'mechanical' ) ;
#223 = VERTEX_POINT ( 'NONE', #51 ) ;
#224 = SECURITY_CLASSIFICATION_LEVEL ( 'unclassified' ) ;
#225 = PRODUCT ( '9c21', '9c21', '', ( #222 ) ) ;
#226 = AXIS2_PLACEMENT_3D ( 'NONE', #69, #43, #163 ) ;
#227 = ORIENTED_EDGE ( 'NONE', *, *, #167, .T. ) ;
#228 = DATE_AND_TIME ( #132, #239 ) ;
#229 = VERTEX_POINT ( 'NONE', #124 ) ;
#230 = PERSON_AND_ORGANIZATION ( #55, #194 ) ;
#231 = CARTESIAN_POINT ( 'NONE',  ( 20.00000000000000000, 2.449293598294706513E-15, 0.000000000000000000 ) ) ;
#232 = PERSON_AND_ORGANIZATION ( #55, #194 ) ;
#233 = DIRECTION ( 'NONE',  ( 0.000000000000000000, 0.000000000000000000, 1.000000000000000000 ) ) ;
#234 = APPROVAL_PERSON_ORGANIZATION ( #32, #56, #10 ) ;
#235 = EDGE_CURVE ( 'NONE', #223, #8, #170, .T. ) ;
#236 = CARTESIAN_POINT ( 'NONE',  ( -20.00000000000000000, 0.000000000000000000, 10.00000000000000000 ) ) ;
#237 = LINE ( 'NONE', #89, #187 ) ;
#238 = DIRECTION ( 'NONE',  ( 0.000000000000000000, 0.000000000000000000, 1.000000000000000000 ) ) ;
#239 = LOCAL_TIME ( 11, 30, 28.00000000000000000, #290 ) ;
#240 = CARTESIAN_POINT ( 'NONE',  ( 0.000000000000000000, 0.000000000000000000, 110.0000000000000000 ) ) ;
#241 = AXIS2_PLACEMENT_3D ( 'NONE', #19, #260, #216 ) ;
#242 = APPLICATION_CONTEXT ( 'configuration controlled 3d designs of mechanical parts and assemblies' ) ;
#243 = EDGE_LOOP ( 'NONE', ( #270, #217 ) ) ;
#244 =( LENGTH_UNIT ( ) NAMED_UNIT ( * ) SI_UNIT ( .MILLI., .METRE. ) );
#245 = DIRECTION ( 'NONE',  ( -1.000000000000000000, 0.000000000000000000, 0.000000000000000000 ) ) ;
#246 = CC_DESIGN_APPROVAL ( #7, ( #198 ) ) ;
#247 = VECTOR ( 'NONE', #67, 1000.000000000000000 ) ;
#248 = CC_DESIGN_DATE_AND_TIME_ASSIGNMENT ( #179, #157, ( #112 ) ) ;
#249 = ORIENTED_EDGE ( 'NONE', *, *, #145, .F. ) ;
#250 = APPROVAL_ROLE ( '' ) ;
#251 = ORIENTED_EDGE ( 'NONE', *, *, #30, .T. ) ;
#252 = EDGE_LOOP ( 'NONE', ( #294, #268, #158, #5 ) ) ;
#253 = PERSON_AND_ORGANIZATION_ROLE ( 'design_owner' ) ;
#254 = VERTEX_POINT ( 'NONE', #143 ) ;
#255 = EDGE_CURVE ( 'NONE', #254, #78, #76, .T. ) ;
#256 = DIRECTION ( 'NONE',  ( -0.000000000000000000, -0.000000000000000000, -1.000000000000000000 ) ) ;
#257 = ADVANCED_FACE ( 'NONE', ( #215 ), #166, .T. ) ;
#258 = CARTESIAN_POINT ( 'NONE',  ( 0.000000000000000000, 0.000000000000000000, 0.000000000000000000 ) ) ;
#259 = LINE ( 'NONE', #88, #247 ) ;
#260 = DIRECTION ( 'NONE',  ( -0.000000000000000000, -0.000000000000000000, -1.000000000000000000 ) ) ;
#261 = DIRECTION ( 'NONE',  ( 1.000000000000000000, 0.000000000000000000, -0.000000000000000000 ) ) ;
#262 = VECTOR ( 'NONE', #184, 1000.000000000000000 ) ;
#263 = ORIENTED_EDGE ( 'NONE', *, *, #284, .F. ) ;
#264 = ADVANCED_BREP_SHAPE_REPRESENTATION ( '9c21', ( #28, #154 ), #287 ) ;
#265 = CC_DESIGN_DATE_AND_TIME_ASSIGNMENT ( #61, #269, ( #90 ) ) ;
#266 = DIRECTION ( 'NONE',  ( 1.000000000000000000, 0.000000000000000000, 0.000000000000000000 ) ) ;
#267 = PERSON_AND_ORGANIZATION ( #55, #194 ) ;
#268 = ORIENTED_EDGE ( 'NONE', *, *, #48, .F. ) ;
#269 = DATE_TIME_ROLE ( 'classification_date' ) ;
#270 = ORIENTED_EDGE ( 'NONE', *, *, #302, .T. ) ;
#271 = CIRCLE ( 'NONE', #91, 16.00000000000000000 ) ;
#272 = ORIENTED_EDGE ( 'NONE', *, *, #235, .F. ) ;
#273 = COORDINATED_UNIVERSAL_TIME_OFFSET ( 1, 0, .AHEAD. ) ;
#274 = ADVANCED_FACE ( 'NONE', ( #72 ), #140, .T. ) ;
#275 = DIRECTION ( 'NONE',  ( 0.000000000000000000, 0.000000000000000000, 1.000000000000000000 ) ) ;
#276 = CARTESIAN_POINT ( 'NONE',  ( 0.000000000000000000, 0.000000000000000000, 10.20000000000000107 ) ) ;
#277 = AXIS2_PLACEMENT_3D ( 'NONE', #97, #212, #73 ) ;
#278 = PLANE ( 'NONE',  #226 ) ;
#279 = CARTESIAN_POINT ( 'NONE',  ( 0.000000000000000000, 0.000000000000000000, 10.00000000000000000 ) ) ;
#280 = CARTESIAN_POINT ( 'NONE',  ( 16.00000000000000000, 1.959434878635765131E-15, 110.0000000000000000 ) ) ;
#281 = DIRECTION ( 'NONE',  ( 0.000000000000000000, 0.000000000000000000, 1.000000000000000000 ) ) ;
#282 = DIRECTION ( 'NONE',  ( 0.000000000000000000, 0.000000000000000000, 1.000000000000000000 ) ) ;
#283 = CC_DESIGN_PERSON_AND_ORGANIZATION_ASSIGNMENT ( #37, #59, ( #90 ) ) ;
#284 = EDGE_CURVE ( 'NONE', #8, #223, #195, .T. ) ;
#285 = DIRECTION ( 'NONE',  ( 1.000000000000000000, 0.000000000000000000, -0.000000000000000000 ) ) ;
#286 = ORIENTED_EDGE ( 'NONE', *, *, #196, .T. ) ;
#287 =( GEOMETRIC_REPRESENTATION_CONTEXT ( 3 ) GLOBAL_UNCERTAINTY_ASSIGNED_CONTEXT ( ( #101 ) ) GLOBAL_UNIT_ASSIGNED_CONTEXT ( ( #244, #304, #96 ) ) REPRESENTATION_CONTEXT ( 'NONE', 'WORKASPACE' ) );
#288 = AXIS2_PLACEMENT_3D ( 'NONE', #120, #238, #285 ) ;
#289 = DESIGN_CONTEXT ( 'detailed design', #242, 'design' ) ;
#290 = COORDINATED_UNIVERSAL_TIME_OFFSET ( 1, 0, .AHEAD. ) ;
#291 = ORIENTED_EDGE ( 'NONE', *, *, #29, .F. ) ;
#292 = ORIENTED_EDGE ( 'NONE', *, *, #14, .T. ) ;
#293 = APPROVAL_STATUS ( 'not_yet_approved' ) ;
#294 = ORIENTED_EDGE ( 'NONE', *, *, #77, .F. ) ;
#295 = FACE_OUTER_BOUND ( 'NONE', #150, .T. ) ;
#296 = CARTESIAN_POINT ( 'NONE',  ( -20.00000000000000000, 0.000000000000000000, 0.000000000000000000 ) ) ;
#297 = FACE_OUTER_BOUND ( 'NONE', #252, .T. ) ;
#298 = AXIS2_PLACEMENT_3D ( 'NONE', #119, #281, #92 ) ;
#299 = DIRECTION ( 'NONE',  ( 1.000000000000000000, 0.000000000000000000, 0.000000000000000000 ) ) ;
#300 = CARTESIAN_POINT ( 'NONE',  ( 0.000000000000000000, 0.000000000000000000, 10.20000000000000107 ) ) ;
#301 = DIRECTION ( 'NONE',  ( -0.000000000000000000, -0.000000000000000000, -1.000000000000000000 ) ) ;
#302 = EDGE_CURVE ( 'NONE', #78, #81, #149, .T. ) ;
#303 = LOCAL_TIME ( 11, 30, 28.00000000000000000, #160 ) ;
#304 =( NAMED_UNIT ( * ) PLANE_ANGLE_UNIT ( ) SI_UNIT ( $, .RADIAN. ) );
#305 = ADVANCED_FACE ( 'NONE', ( #214 ), #306, .T. ) ;
#306 = CYLINDRICAL_SURFACE ( 'NONE', #142, 20.00000000000000000 ) ;
#307 = VERTEX_POINT ( 'NONE', #46 ) ;
ENDSEC;
END-ISO-10303-21;
