ISO-10303-21;
HEADER;
FILE_DESCRIPTION (( 'STEP AP203' ),
    '1' );
FILE_NAME ('1206.STEP',
    '2022-07-07T10:02:40',
    ( '' ),
    ( '' ),
    'SwSTEP 2.0',
    'SolidWorks 2019',
    '' );
FILE_SCHEMA (( 'CONFIG_CONTROL_DESIGN' ));
ENDSEC;

DATA;
#1 = CARTESIAN_POINT ( 'NONE',  ( 7.000000000000000000, 8.572527594031473190E-16, 5.000000000000000000 ) ) ;
#2 = DIRECTION ( 'NONE',  ( 0.000000000000000000, 0.000000000000000000, 1.000000000000000000 ) ) ;
#3 = PERSON_AND_ORGANIZATION_ROLE ( 'creator' ) ;
#4 = TOROIDAL_SURFACE ( 'NONE', #92, 4.200000000000000178, 0.2000000000000000111 ) ;
#5 = PERSON_AND_ORGANIZATION ( #30, #84 ) ;
#6 = COORDINATED_UNIVERSAL_TIME_OFFSET ( 1, 0, .AHEAD. ) ;
#7 = VERTEX_POINT ( 'NONE', #203 ) ;
#8 = CC_DESIGN_DATE_AND_TIME_ASSIGNMENT ( #57, #116, ( #185 ) ) ;
#9 = VECTOR ( 'NONE', #93, 1000.000000000000000 ) ;
#10 = DATE_AND_TIME ( #191, #165 ) ;
#11 = COORDINATED_UNIVERSAL_TIME_OFFSET ( 1, 0, .AHEAD. ) ;
#12 = ORIENTED_EDGE ( 'NONE', *, *, #250, .F. ) ;
#13 = ORIENTED_EDGE ( 'NONE', *, *, #43, .T. ) ;
#14 = CARTESIAN_POINT ( 'NONE',  ( -4.000000000000000000, 0.000000000000000000, 405.0000000000000000 ) ) ;
#15 = ADVANCED_BREP_SHAPE_REPRESENTATION ( '1206', ( #138, #97 ), #231 ) ;
#16 = DIRECTION ( 'NONE',  ( 0.000000000000000000, 0.000000000000000000, 1.000000000000000000 ) ) ;
#17 = APPROVAL ( #172, 'NEURÈENÝ' ) ;
#18 = EDGE_LOOP ( 'NONE', ( #61, #151, #196, #157 ) ) ;
#19 = FACE_OUTER_BOUND ( 'NONE', #277, .T. ) ;
#20 = DIRECTION ( 'NONE',  ( 1.000000000000000000, 0.000000000000000000, -0.000000000000000000 ) ) ;
#21 = AXIS2_PLACEMENT_3D ( 'NONE', #158, #279, #86 ) ;
#22 = CYLINDRICAL_SURFACE ( 'NONE', #284, 4.000000000000000000 ) ;
#23 = FACE_OUTER_BOUND ( 'NONE', #36, .T. ) ;
#24 = DIRECTION ( 'NONE',  ( -0.000000000000000000, -0.000000000000000000, -1.000000000000000000 ) ) ;
#25 = ADVANCED_FACE ( 'NONE', ( #175 ), #56, .F. ) ;
#26 = ORIENTED_EDGE ( 'NONE', *, *, #89, .T. ) ;
#27 =( LENGTH_UNIT ( ) NAMED_UNIT ( * ) SI_UNIT ( .MILLI., .METRE. ) );
#28 = CALENDAR_DATE ( 2022, 7, 7 ) ;
#29 = EDGE_CURVE ( 'NONE', #230, #247, #184, .T. ) ;
#30 = PERSON ( 'NEURÈENÝ', 'NEURÈENÝ', 'NEURÈENÝ', ('NEURÈENÝ'), ('NEURÈENÝ'), ('NEURÈENÝ') ) ;
#31 = DATE_AND_TIME ( #28, #134 ) ;
#32 = CIRCLE ( 'NONE', #212, 7.000000000000000000 ) ;
#33 = VERTEX_POINT ( 'NONE', #201 ) ;
#34 = EDGE_CURVE ( 'NONE', #280, #208, #229, .T. ) ;
#35 = VERTEX_POINT ( 'NONE', #14 ) ;
#36 = EDGE_LOOP ( 'NONE', ( #169, #139, #26, #192 ) ) ;
#37 = DIRECTION ( 'NONE',  ( 0.000000000000000000, -1.000000000000000000, 0.000000000000000000 ) ) ;
#38 = LINE ( 'NONE', #302, #9 ) ;
#39 = CC_DESIGN_PERSON_AND_ORGANIZATION_ASSIGNMENT ( #130, #251, ( #185 ) ) ;
#40 = ORIENTED_EDGE ( 'NONE', *, *, #34, .T. ) ;
#41 = AXIS2_PLACEMENT_3D ( 'NONE', #237, #120, #186 ) ;
#42 = DIRECTION ( 'NONE',  ( 1.000000000000000000, 0.000000000000000000, 0.000000000000000000 ) ) ;
#43 = EDGE_CURVE ( 'NONE', #259, #33, #47, .T. ) ;
#44 = APPLICATION_CONTEXT ( 'configuration controlled 3d designs of mechanical parts and assemblies' ) ;
#45 = DIRECTION ( 'NONE',  ( -0.000000000000000000, -0.000000000000000000, -1.000000000000000000 ) ) ;
#46 = DIRECTION ( 'NONE',  ( -0.000000000000000000, -0.000000000000000000, -1.000000000000000000 ) ) ;
#47 = CIRCLE ( 'NONE', #174, 0.1999999999999996503 ) ;
#48 = CARTESIAN_POINT ( 'NONE',  ( -7.000000000000000000, 0.000000000000000000, 5.000000000000000000 ) ) ;
#49 = DIRECTION ( 'NONE',  ( -0.000000000000000000, -0.000000000000000000, -1.000000000000000000 ) ) ;
#50 = DATE_AND_TIME ( #73, #213 ) ;
#51 = CC_DESIGN_DATE_AND_TIME_ASSIGNMENT ( #10, #190, ( #236 ) ) ;
#52 = PERSON_AND_ORGANIZATION_ROLE ( 'design_supplier' ) ;
#53 = APPROVAL_DATE_TIME ( #31, #204 ) ;
#54 = AXIS2_PLACEMENT_3D ( 'NONE', #252, #136, #178 ) ;
#55 = LOCAL_TIME ( 12, 2, 40.00000000000000000, #226 ) ;
#56 = PLANE ( 'NONE',  #54 ) ;
#57 = DATE_AND_TIME ( #90, #55 ) ;
#58 = FACE_OUTER_BOUND ( 'NONE', #293, .T. ) ;
#59 = ORIENTED_EDGE ( 'NONE', *, *, #209, .T. ) ;
#60 = CIRCLE ( 'NONE', #41, 4.000000000000000000 ) ;
#61 = ORIENTED_EDGE ( 'NONE', *, *, #34, .F. ) ;
#62 = EDGE_LOOP ( 'NONE', ( #227, #119 ) ) ;
#63 = DIRECTION ( 'NONE',  ( 1.224646799147353207E-16, 1.000000000000000000, -0.000000000000000000 ) ) ;
#64 = CC_DESIGN_PERSON_AND_ORGANIZATION_ASSIGNMENT ( #292, #272, ( #71 ) ) ;
#65 = CARTESIAN_POINT ( 'NONE',  ( 4.000000000000000000, 4.898587196589412829E-16, 405.0000000000000000 ) ) ;
#66 = DIRECTION ( 'NONE',  ( 1.000000000000000000, 0.000000000000000000, 0.000000000000000000 ) ) ;
#67 = DIRECTION ( 'NONE',  ( 0.000000000000000000, 0.000000000000000000, 1.000000000000000000 ) ) ;
#68 = EDGE_CURVE ( 'NONE', #35, #140, #145, .T. ) ;
#69 = AXIS2_PLACEMENT_3D ( 'NONE', #167, #74, #105 ) ;
#70 = FACE_OUTER_BOUND ( 'NONE', #18, .T. ) ;
#71 = PRODUCT_DEFINITION_FORMATION_WITH_SPECIFIED_SOURCE ( 'LIBOVOLNÝ', '', #278, .NOT_KNOWN. ) ;
#72 = PERSON_AND_ORGANIZATION ( #30, #84 ) ;
#73 = CALENDAR_DATE ( 2022, 7, 7 ) ;
#74 = DIRECTION ( 'NONE',  ( 0.000000000000000000, 0.000000000000000000, 1.000000000000000000 ) ) ;
#75 = CIRCLE ( 'NONE', #254, 4.200000000000000178 ) ;
#76 = ORIENTED_EDGE ( 'NONE', *, *, #135, .F. ) ;
#77 = CC_DESIGN_APPROVAL ( #216, ( #185 ) ) ;
#78 = ORIENTED_EDGE ( 'NONE', *, *, #89, .F. ) ;
#79 = PERSON_AND_ORGANIZATION ( #30, #84 ) ;
#80 = APPROVAL_ROLE ( '' ) ;
#81 = ADVANCED_FACE ( 'NONE', ( #58 ), #155, .T. ) ;
#82 = ORIENTED_EDGE ( 'NONE', *, *, #104, .T. ) ;
#83 = AXIS2_PLACEMENT_3D ( 'NONE', #177, #179, #88 ) ;
#84 = ORGANIZATION ( 'NEURÈENÝ', 'NEURÈENÝ', '' ) ;
#85 = APPROVAL_DATE_TIME ( #205, #216 ) ;
#86 = DIRECTION ( 'NONE',  ( 1.000000000000000000, 0.000000000000000000, 0.000000000000000000 ) ) ;
#87 = APPROVAL_STATUS ( 'not_yet_approved' ) ;
#88 = DIRECTION ( 'NONE',  ( 1.000000000000000000, 0.000000000000000000, 0.000000000000000000 ) ) ;
#89 = EDGE_CURVE ( 'NONE', #35, #7, #38, .T. ) ;
#90 = CALENDAR_DATE ( 2022, 7, 7 ) ;
#91 = EDGE_LOOP ( 'NONE', ( #173, #150, #111, #78 ) ) ;
#92 = AXIS2_PLACEMENT_3D ( 'NONE', #282, #215, #121 ) ;
#93 = DIRECTION ( 'NONE',  ( -0.000000000000000000, -0.000000000000000000, -1.000000000000000000 ) ) ;
#94 = FACE_OUTER_BOUND ( 'NONE', #110, .T. ) ;
#95 = DIRECTION ( 'NONE',  ( 1.000000000000000000, 0.000000000000000000, 0.000000000000000000 ) ) ;
#96 = AXIS2_PLACEMENT_3D ( 'NONE', #156, #16, #206 ) ;
#97 = AXIS2_PLACEMENT_3D ( 'NONE', #152, #193, #197 ) ;
#98 = CARTESIAN_POINT ( 'NONE',  ( 0.000000000000000000, 0.000000000000000000, 0.000000000000000000 ) ) ;
#99 = CYLINDRICAL_SURFACE ( 'NONE', #228, 4.000000000000000000 ) ;
#100 = EDGE_CURVE ( 'NONE', #280, #247, #181, .T. ) ;
#101 = CARTESIAN_POINT ( 'NONE',  ( 0.000000000000000000, 0.000000000000000000, 5.000000000000000000 ) ) ;
#102 = PERSON_AND_ORGANIZATION ( #30, #84 ) ;
#103 = PLANE ( 'NONE',  #200 ) ;
#104 = EDGE_CURVE ( 'NONE', #7, #274, #126, .T. ) ;
#105 = DIRECTION ( 'NONE',  ( 1.000000000000000000, 0.000000000000000000, 0.000000000000000000 ) ) ;
#106 = ORIENTED_EDGE ( 'NONE', *, *, #29, .F. ) ;
#107 = DIRECTION ( 'NONE',  ( 0.000000000000000000, 0.000000000000000000, 1.000000000000000000 ) ) ;
#108 = APPLICATION_CONTEXT ( 'configuration controlled 3d designs of mechanical parts and assemblies' ) ;
#109 = PERSON_AND_ORGANIZATION ( #30, #84 ) ;
#110 = EDGE_LOOP ( 'NONE', ( #153, #235, #13, #222 ) ) ;
#111 = ORIENTED_EDGE ( 'NONE', *, *, #290, .T. ) ;
#112 = TOROIDAL_SURFACE ( 'NONE', #296, 4.200000000000000178, 0.2000000000000000111 ) ;
#113 = ORIENTED_EDGE ( 'NONE', *, *, #209, .F. ) ;
#114 = SHAPE_DEFINITION_REPRESENTATION ( #232, #15 ) ;
#115 = DIRECTION ( 'NONE',  ( -0.000000000000000000, -0.000000000000000000, -1.000000000000000000 ) ) ;
#116 = DATE_TIME_ROLE ( 'classification_date' ) ;
#117 = ORIENTED_EDGE ( 'NONE', *, *, #286, .T. ) ;
#118 = VECTOR ( 'NONE', #46, 1000.000000000000000 ) ;
#119 = ORIENTED_EDGE ( 'NONE', *, *, #225, .T. ) ;
#120 = DIRECTION ( 'NONE',  ( 0.000000000000000000, 0.000000000000000000, 1.000000000000000000 ) ) ;
#121 = DIRECTION ( 'NONE',  ( 1.000000000000000000, 0.000000000000000000, 0.000000000000000000 ) ) ;
#122 = AXIS2_PLACEMENT_3D ( 'NONE', #98, #163, #144 ) ;
#123 = DIRECTION ( 'NONE',  ( 1.000000000000000000, 0.000000000000000000, 0.000000000000000000 ) ) ;
#124 = CARTESIAN_POINT ( 'NONE',  ( 4.000000000000000000, 4.898587196589412829E-16, 5.199999999999982414 ) ) ;
#125 = CC_DESIGN_PERSON_AND_ORGANIZATION_ASSIGNMENT ( #5, #3, ( #236 ) ) ;
#126 = CIRCLE ( 'NONE', #262, 0.1999999999999996503 ) ;
#127 =( NAMED_UNIT ( * ) PLANE_ANGLE_UNIT ( ) SI_UNIT ( $, .RADIAN. ) );
#128 = CC_DESIGN_APPROVAL ( #17, ( #71 ) ) ;
#129 = APPROVAL_STATUS ( 'not_yet_approved' ) ;
#130 = PERSON_AND_ORGANIZATION ( #30, #84 ) ;
#131 = ORIENTED_EDGE ( 'NONE', *, *, #100, .F. ) ;
#132 = APPLICATION_PROTOCOL_DEFINITION ( 'international standard', 'config_control_design', 1994, #44 ) ;
#133 = AXIS2_PLACEMENT_3D ( 'NONE', #285, #49, #42 ) ;
#134 = LOCAL_TIME ( 12, 2, 40.00000000000000000, #220 ) ;
#135 = EDGE_CURVE ( 'NONE', #7, #259, #180, .T. ) ;
#136 = DIRECTION ( 'NONE',  ( 0.000000000000000000, 0.000000000000000000, 1.000000000000000000 ) ) ;
#137 = ORIENTED_EDGE ( 'NONE', *, *, #260, .T. ) ;
#138 = MANIFOLD_SOLID_BREP ( 'Zaoblit1', #294 ) ;
#139 = ORIENTED_EDGE ( 'NONE', *, *, #68, .F. ) ;
#140 = VERTEX_POINT ( 'NONE', #304 ) ;
#141 = ADVANCED_FACE ( 'NONE', ( #243 ), #99, .T. ) ;
#142 = DIRECTION ( 'NONE',  ( -0.000000000000000000, -0.000000000000000000, -1.000000000000000000 ) ) ;
#143 = EDGE_CURVE ( 'NONE', #208, #230, #210, .T. ) ;
#144 = DIRECTION ( 'NONE',  ( 1.000000000000000000, 0.000000000000000000, 0.000000000000000000 ) ) ;
#145 = CIRCLE ( 'NONE', #21, 4.000000000000000000 ) ;
#146 = FACE_OUTER_BOUND ( 'NONE', #233, .T. ) ;
#147 = CARTESIAN_POINT ( 'NONE',  ( -4.200000000000000178, 5.143516556418882928E-16, 5.199999999999982414 ) ) ;
#148 = ADVANCED_FACE ( 'NONE', ( #70 ), #164, .T. ) ;
#149 = PERSON_AND_ORGANIZATION ( #30, #84 ) ;
#150 = ORIENTED_EDGE ( 'NONE', *, *, #198, .T. ) ;
#151 = ORIENTED_EDGE ( 'NONE', *, *, #100, .T. ) ;
#152 = CARTESIAN_POINT ( 'NONE',  ( 0.000000000000000000, 0.000000000000000000, 0.000000000000000000 ) ) ;
#153 = ORIENTED_EDGE ( 'NONE', *, *, #104, .F. ) ;
#154 = CC_DESIGN_PERSON_AND_ORGANIZATION_ASSIGNMENT ( #102, #52, ( #71 ) ) ;
#155 = CYLINDRICAL_SURFACE ( 'NONE', #245, 7.000000000000000000 ) ;
#156 = CARTESIAN_POINT ( 'NONE',  ( 0.000000000000000000, 0.000000000000000000, 5.000000000000000000 ) ) ;
#157 = ORIENTED_EDGE ( 'NONE', *, *, #143, .F. ) ;
#158 = CARTESIAN_POINT ( 'NONE',  ( 0.000000000000000000, 0.000000000000000000, 405.0000000000000000 ) ) ;
#159 = PRODUCT_RELATED_PRODUCT_CATEGORY ( 'detail', '', ( #278 ) ) ;
#160 = DIRECTION ( 'NONE',  ( -1.000000000000000000, 0.000000000000000000, 0.000000000000000000 ) ) ;
#161 = CIRCLE ( 'NONE', #133, 4.200000000000000178 ) ;
#162 = CARTESIAN_POINT ( 'NONE',  ( -7.000000000000000000, 0.000000000000000000, 0.000000000000000000 ) ) ;
#163 = DIRECTION ( 'NONE',  ( 0.000000000000000000, 0.000000000000000000, 1.000000000000000000 ) ) ;
#164 = CYLINDRICAL_SURFACE ( 'NONE', #306, 7.000000000000000000 ) ;
#165 = LOCAL_TIME ( 12, 2, 40.00000000000000000, #6 ) ;
#166 = CARTESIAN_POINT ( 'NONE',  ( 0.000000000000000000, 0.000000000000000000, 5.199999999999982414 ) ) ;
#167 = CARTESIAN_POINT ( 'NONE',  ( 0.000000000000000000, 0.000000000000000000, 5.199999999999982414 ) ) ;
#168 = DESIGN_CONTEXT ( 'detailed design', #44, 'design' ) ;
#169 = ORIENTED_EDGE ( 'NONE', *, *, #198, .F. ) ;
#170 = CC_DESIGN_PERSON_AND_ORGANIZATION_ASSIGNMENT ( #79, #171, ( #278 ) ) ;
#171 = PERSON_AND_ORGANIZATION_ROLE ( 'design_owner' ) ;
#172 = APPROVAL_STATUS ( 'not_yet_approved' ) ;
#173 = ORIENTED_EDGE ( 'NONE', *, *, #225, .F. ) ;
#174 = AXIS2_PLACEMENT_3D ( 'NONE', #297, #37, #202 ) ;
#175 = FACE_OUTER_BOUND ( 'NONE', #276, .T. ) ;
#176 = ADVANCED_FACE ( 'NONE', ( #94 ), #112, .F. ) ;
#177 = CARTESIAN_POINT ( 'NONE',  ( 0.000000000000000000, 0.000000000000000000, 0.000000000000000000 ) ) ;
#178 = DIRECTION ( 'NONE',  ( 1.000000000000000000, 0.000000000000000000, -0.000000000000000000 ) ) ;
#179 = DIRECTION ( 'NONE',  ( 0.000000000000000000, 0.000000000000000000, 1.000000000000000000 ) ) ;
#180 = CIRCLE ( 'NONE', #223, 4.000000000000000000 ) ;
#181 = LINE ( 'NONE', #281, #118 ) ;
#182 = CARTESIAN_POINT ( 'NONE',  ( 0.000000000000000000, 0.000000000000000000, 405.0000000000000000 ) ) ;
#183 = DIRECTION ( 'NONE',  ( 0.000000000000000000, 0.000000000000000000, 1.000000000000000000 ) ) ;
#184 = CIRCLE ( 'NONE', #83, 7.000000000000000000 ) ;
#185 = SECURITY_CLASSIFICATION ( '', '', #289 ) ;
#186 = DIRECTION ( 'NONE',  ( 1.000000000000000000, 0.000000000000000000, 0.000000000000000000 ) ) ;
#187 = DIRECTION ( 'NONE',  ( -0.000000000000000000, -0.000000000000000000, -1.000000000000000000 ) ) ;
#188 = DIRECTION ( 'NONE',  ( -1.000000000000000000, 0.000000000000000000, 0.000000000000000000 ) ) ;
#189 = ADVANCED_FACE ( 'NONE', ( #19 ), #4, .F. ) ;
#190 = DATE_TIME_ROLE ( 'creation_date' ) ;
#191 = CALENDAR_DATE ( 2022, 7, 7 ) ;
#192 = ORIENTED_EDGE ( 'NONE', *, *, #135, .T. ) ;
#193 = DIRECTION ( 'NONE',  ( 0.000000000000000000, 0.000000000000000000, 1.000000000000000000 ) ) ;
#194 = ADVANCED_FACE ( 'NONE', ( #23 ), #22, .T. ) ;
#195 = APPLICATION_PROTOCOL_DEFINITION ( 'international standard', 'config_control_design', 1994, #108 ) ;
#196 = ORIENTED_EDGE ( 'NONE', *, *, #250, .T. ) ;
#197 = DIRECTION ( 'NONE',  ( 1.000000000000000000, 0.000000000000000000, 0.000000000000000000 ) ) ;
#198 = EDGE_CURVE ( 'NONE', #140, #259, #266, .T. ) ;
#199 = ORIENTED_EDGE ( 'NONE', *, *, #29, .T. ) ;
#200 = AXIS2_PLACEMENT_3D ( 'NONE', #244, #107, #269 ) ;
#201 = CARTESIAN_POINT ( 'NONE',  ( 4.200000000000000178, 0.000000000000000000, 4.999999999999991118 ) ) ;
#202 = DIRECTION ( 'NONE',  ( 0.000000000000000000, 0.000000000000000000, -1.000000000000000000 ) ) ;
#203 = CARTESIAN_POINT ( 'NONE',  ( -4.000000000000000000, 0.000000000000000000, 5.199999999999982414 ) ) ;
#204 = APPROVAL ( #129, 'NEURÈENÝ' ) ;
#205 = DATE_AND_TIME ( #258, #246 ) ;
#206 = DIRECTION ( 'NONE',  ( 1.000000000000000000, 0.000000000000000000, 0.000000000000000000 ) ) ;
#207 = CIRCLE ( 'NONE', #69, 4.000000000000000000 ) ;
#208 = VERTEX_POINT ( 'NONE', #48 ) ;
#209 = EDGE_CURVE ( 'NONE', #33, #274, #161, .T. ) ;
#210 = LINE ( 'NONE', #238, #270 ) ;
#211 = CARTESIAN_POINT ( 'NONE',  ( 0.000000000000000000, 0.000000000000000000, 5.000000000000000000 ) ) ;
#212 = AXIS2_PLACEMENT_3D ( 'NONE', #239, #2, #123 ) ;
#213 = LOCAL_TIME ( 12, 2, 40.00000000000000000, #291 ) ;
#214 = CARTESIAN_POINT ( 'NONE',  ( -4.200000000000000178, 5.143516556418882928E-16, 4.999999999999991118 ) ) ;
#215 = DIRECTION ( 'NONE',  ( 0.000000000000000000, 0.000000000000000000, 1.000000000000000000 ) ) ;
#216 = APPROVAL ( #87, 'NEURÈENÝ' ) ;
#217 = DIRECTION ( 'NONE',  ( 1.000000000000000000, 0.000000000000000000, 0.000000000000000000 ) ) ;
#218 = APPROVAL_PERSON_ORGANIZATION ( #72, #204, #273 ) ;
#219 = UNCERTAINTY_MEASURE_WITH_UNIT (LENGTH_MEASURE( 1.000000000000000082E-05 ), #27, 'distance_accuracy_value', 'NONE');
#220 = COORDINATED_UNIVERSAL_TIME_OFFSET ( 1, 0, .AHEAD. ) ;
#221 =( NAMED_UNIT ( * ) SI_UNIT ( $, .STERADIAN. ) SOLID_ANGLE_UNIT ( ) );
#222 = ORIENTED_EDGE ( 'NONE', *, *, #286, .F. ) ;
#223 = AXIS2_PLACEMENT_3D ( 'NONE', #305, #67, #66 ) ;
#224 = FACE_OUTER_BOUND ( 'NONE', #62, .T. ) ;
#225 = EDGE_CURVE ( 'NONE', #140, #35, #60, .T. ) ;
#226 = COORDINATED_UNIVERSAL_TIME_OFFSET ( 1, 0, .AHEAD. ) ;
#227 = ORIENTED_EDGE ( 'NONE', *, *, #68, .T. ) ;
#228 = AXIS2_PLACEMENT_3D ( 'NONE', #182, #45, #265 ) ;
#229 = CIRCLE ( 'NONE', #96, 7.000000000000000000 ) ;
#230 = VERTEX_POINT ( 'NONE', #162 ) ;
#231 =( GEOMETRIC_REPRESENTATION_CONTEXT ( 3 ) GLOBAL_UNCERTAINTY_ASSIGNED_CONTEXT ( ( #219 ) ) GLOBAL_UNIT_ASSIGNED_CONTEXT ( ( #27, #127, #221 ) ) REPRESENTATION_CONTEXT ( 'NONE', 'WORKASPACE' ) );
#232 = PRODUCT_DEFINITION_SHAPE ( 'NONE', 'NONE',  #236 ) ;
#233 = EDGE_LOOP ( 'NONE', ( #137, #40 ) ) ;
#234 = ORIENTED_EDGE ( 'NONE', *, *, #260, .F. ) ;
#235 = ORIENTED_EDGE ( 'NONE', *, *, #290, .F. ) ;
#236 = PRODUCT_DEFINITION ( 'NEZNÁMÝ', '', #71, #168 ) ;
#237 = CARTESIAN_POINT ( 'NONE',  ( 0.000000000000000000, 0.000000000000000000, 405.0000000000000000 ) ) ;
#238 = CARTESIAN_POINT ( 'NONE',  ( -7.000000000000000000, 0.000000000000000000, 5.000000000000000000 ) ) ;
#239 = CARTESIAN_POINT ( 'NONE',  ( 0.000000000000000000, 0.000000000000000000, 5.000000000000000000 ) ) ;
#240 = CIRCLE ( 'NONE', #122, 7.000000000000000000 ) ;
#241 = DIRECTION ( 'NONE',  ( 0.000000000000000000, 0.000000000000000000, 1.000000000000000000 ) ) ;
#242 = ADVANCED_FACE ( 'NONE', ( #268, #146 ), #288, .T. ) ;
#243 = FACE_OUTER_BOUND ( 'NONE', #91, .T. ) ;
#244 = CARTESIAN_POINT ( 'NONE',  ( 0.000000000000000000, 0.000000000000000000, 405.0000000000000000 ) ) ;
#245 = AXIS2_PLACEMENT_3D ( 'NONE', #257, #115, #299 ) ;
#246 = LOCAL_TIME ( 12, 2, 40.00000000000000000, #11 ) ;
#247 = VERTEX_POINT ( 'NONE', #307 ) ;
#248 = MECHANICAL_CONTEXT ( 'NONE', #108, 'mechanical' ) ;
#249 = APPROVAL_DATE_TIME ( #50, #17 ) ;
#250 = EDGE_CURVE ( 'NONE', #247, #230, #240, .T. ) ;
#251 = PERSON_AND_ORGANIZATION_ROLE ( 'classification_officer' ) ;
#252 = CARTESIAN_POINT ( 'NONE',  ( 0.000000000000000000, 0.000000000000000000, 0.000000000000000000 ) ) ;
#253 = ORIENTED_EDGE ( 'NONE', *, *, #43, .F. ) ;
#254 = AXIS2_PLACEMENT_3D ( 'NONE', #101, #295, #217 ) ;
#255 = CC_DESIGN_SECURITY_CLASSIFICATION ( #185, ( #71 ) ) ;
#256 = EDGE_LOOP ( 'NONE', ( #59, #117 ) ) ;
#257 = CARTESIAN_POINT ( 'NONE',  ( 0.000000000000000000, 0.000000000000000000, 5.000000000000000000 ) ) ;
#258 = CALENDAR_DATE ( 2022, 7, 7 ) ;
#259 = VERTEX_POINT ( 'NONE', #124 ) ;
#260 = EDGE_CURVE ( 'NONE', #208, #280, #32, .T. ) ;
#261 = DIRECTION ( 'NONE',  ( -0.000000000000000000, -0.000000000000000000, -1.000000000000000000 ) ) ;
#262 = AXIS2_PLACEMENT_3D ( 'NONE', #147, #63, #287 ) ;
#263 = CC_DESIGN_APPROVAL ( #204, ( #236 ) ) ;
#264 = CARTESIAN_POINT ( 'NONE',  ( 0.000000000000000000, 0.000000000000000000, 5.000000000000000000 ) ) ;
#265 = DIRECTION ( 'NONE',  ( -1.000000000000000000, 0.000000000000000000, 0.000000000000000000 ) ) ;
#266 = LINE ( 'NONE', #65, #267 ) ;
#267 = VECTOR ( 'NONE', #261, 1000.000000000000000 ) ;
#268 = FACE_BOUND ( 'NONE', #256, .T. ) ;
#269 = DIRECTION ( 'NONE',  ( 1.000000000000000000, 0.000000000000000000, -0.000000000000000000 ) ) ;
#270 = VECTOR ( 'NONE', #24, 1000.000000000000000 ) ;
#271 = APPROVAL_PERSON_ORGANIZATION ( #149, #17, #275 ) ;
#272 = PERSON_AND_ORGANIZATION_ROLE ( 'creator' ) ;
#273 = APPROVAL_ROLE ( '' ) ;
#274 = VERTEX_POINT ( 'NONE', #214 ) ;
#275 = APPROVAL_ROLE ( '' ) ;
#276 = EDGE_LOOP ( 'NONE', ( #106, #12 ) ) ;
#277 = EDGE_LOOP ( 'NONE', ( #76, #82, #113, #253 ) ) ;
#278 = PRODUCT ( '1206', '1206', '', ( #248 ) ) ;
#279 = DIRECTION ( 'NONE',  ( 0.000000000000000000, 0.000000000000000000, 1.000000000000000000 ) ) ;
#280 = VERTEX_POINT ( 'NONE', #1 ) ;
#281 = CARTESIAN_POINT ( 'NONE',  ( 7.000000000000000000, 8.572527594031473190E-16, 5.000000000000000000 ) ) ;
#282 = CARTESIAN_POINT ( 'NONE',  ( 0.000000000000000000, 0.000000000000000000, 5.199999999999982414 ) ) ;
#283 = CARTESIAN_POINT ( 'NONE',  ( 0.000000000000000000, 0.000000000000000000, 405.0000000000000000 ) ) ;
#284 = AXIS2_PLACEMENT_3D ( 'NONE', #283, #142, #160 ) ;
#285 = CARTESIAN_POINT ( 'NONE',  ( 0.000000000000000000, 0.000000000000000000, 5.000000000000000000 ) ) ;
#286 = EDGE_CURVE ( 'NONE', #274, #33, #75, .T. ) ;
#287 = DIRECTION ( 'NONE',  ( -1.000000000000000000, 1.224646799147353454E-16, 0.000000000000000000 ) ) ;
#288 = PLANE ( 'NONE',  #300 ) ;
#289 = SECURITY_CLASSIFICATION_LEVEL ( 'unclassified' ) ;
#290 = EDGE_CURVE ( 'NONE', #259, #7, #207, .T. ) ;
#291 = COORDINATED_UNIVERSAL_TIME_OFFSET ( 1, 0, .AHEAD. ) ;
#292 = PERSON_AND_ORGANIZATION ( #30, #84 ) ;
#293 = EDGE_LOOP ( 'NONE', ( #131, #234, #298, #199 ) ) ;
#294 = CLOSED_SHELL ( 'NONE', ( #189, #141, #148, #81, #242, #25, #194, #303, #176 ) ) ;
#295 = DIRECTION ( 'NONE',  ( -0.000000000000000000, -0.000000000000000000, -1.000000000000000000 ) ) ;
#296 = AXIS2_PLACEMENT_3D ( 'NONE', #166, #183, #95 ) ;
#297 = CARTESIAN_POINT ( 'NONE',  ( 4.200000000000000178, 0.000000000000000000, 5.199999999999982414 ) ) ;
#298 = ORIENTED_EDGE ( 'NONE', *, *, #143, .T. ) ;
#299 = DIRECTION ( 'NONE',  ( -1.000000000000000000, 0.000000000000000000, 0.000000000000000000 ) ) ;
#300 = AXIS2_PLACEMENT_3D ( 'NONE', #264, #241, #20 ) ;
#301 = APPROVAL_PERSON_ORGANIZATION ( #109, #216, #80 ) ;
#302 = CARTESIAN_POINT ( 'NONE',  ( -4.000000000000000000, 0.000000000000000000, 405.0000000000000000 ) ) ;
#303 = ADVANCED_FACE ( 'NONE', ( #224 ), #103, .T. ) ;
#304 = CARTESIAN_POINT ( 'NONE',  ( 4.000000000000000000, 4.898587196589412829E-16, 405.0000000000000000 ) ) ;
#305 = CARTESIAN_POINT ( 'NONE',  ( 0.000000000000000000, 0.000000000000000000, 5.199999999999982414 ) ) ;
#306 = AXIS2_PLACEMENT_3D ( 'NONE', #211, #187, #188 ) ;
#307 = CARTESIAN_POINT ( 'NONE',  ( 7.000000000000000000, 8.572527594031473190E-16, 0.000000000000000000 ) ) ;
ENDSEC;
END-ISO-10303-21;
