ISO-10303-21;
HEADER;
FILE_DESCRIPTION (( 'STEP AP203' ),
    '1' );
FILE_NAME ('f95a.STEP',
    '2022-07-07T09:40:27',
    ( '' ),
    ( '' ),
    'SwSTEP 2.0',
    'SolidWorks 2019',
    '' );
FILE_SCHEMA (( 'CONFIG_CONTROL_DESIGN' ));
ENDSEC;

DATA;
#1 = EDGE_LOOP ( 'NONE', ( #92, #152 ) ) ;
#2 = PERSON_AND_ORGANIZATION_ROLE ( 'creator' ) ;
#3 = FACE_OUTER_BOUND ( 'NONE', #225, .T. ) ;
#4 = LINE ( 'NONE', #84, #244 ) ;
#5 = FACE_OUTER_BOUND ( 'NONE', #252, .T. ) ;
#6 = LINE ( 'NONE', #296, #235 ) ;
#7 = PERSON_AND_ORGANIZATION ( #111, #209 ) ;
#8 = ORIENTED_EDGE ( 'NONE', *, *, #208, .T. ) ;
#9 = ADVANCED_FACE ( 'NONE', ( #99 ), #102, .T. ) ;
#10 = AXIS2_PLACEMENT_3D ( 'NONE', #219, #300, #94 ) ;
#11 = ORIENTED_EDGE ( 'NONE', *, *, #107, .T. ) ;
#12 = CC_DESIGN_PERSON_AND_ORGANIZATION_ASSIGNMENT ( #199, #43, ( #280 ) ) ;
#13 = AXIS2_PLACEMENT_3D ( 'NONE', #289, #30, #265 ) ;
#14 = CC_DESIGN_PERSON_AND_ORGANIZATION_ASSIGNMENT ( #7, #286, ( #232 ) ) ;
#15 = AXIS2_PLACEMENT_3D ( 'NONE', #198, #266, #275 ) ;
#16 = APPROVAL_PERSON_ORGANIZATION ( #171, #113, #47 ) ;
#17 = CC_DESIGN_PERSON_AND_ORGANIZATION_ASSIGNMENT ( #162, #2, ( #65 ) ) ;
#18 = AXIS2_PLACEMENT_3D ( 'NONE', #178, #262, #29 ) ;
#19 = ADVANCED_FACE ( 'NONE', ( #301 ), #157, .T. ) ;
#20 = APPROVAL_STATUS ( 'not_yet_approved' ) ;
#21 = DIRECTION ( 'NONE',  ( -0.000000000000000000, -0.000000000000000000, -1.000000000000000000 ) ) ;
#22 = VERTEX_POINT ( 'NONE', #54 ) ;
#23 = DATE_TIME_ROLE ( 'creation_date' ) ;
#24 = CARTESIAN_POINT ( 'NONE',  ( 0.000000000000000000, 0.000000000000000000, 0.000000000000000000 ) ) ;
#25 = DATE_AND_TIME ( #297, #67 ) ;
#26 = ORIENTED_EDGE ( 'NONE', *, *, #187, .F. ) ;
#27 = VECTOR ( 'NONE', #268, 1000.000000000000000 ) ;
#28 = PERSON_AND_ORGANIZATION ( #111, #209 ) ;
#29 = DIRECTION ( 'NONE',  ( 1.000000000000000000, 0.000000000000000000, 0.000000000000000000 ) ) ;
#30 = DIRECTION ( 'NONE',  ( -0.000000000000000000, -0.000000000000000000, -1.000000000000000000 ) ) ;
#31 = CARTESIAN_POINT ( 'NONE',  ( 0.000000000000000000, 0.000000000000000000, 507.0000000000000000 ) ) ;
#32 = CYLINDRICAL_SURFACE ( 'NONE', #254, 11.00000000000000000 ) ;
#33 = EDGE_LOOP ( 'NONE', ( #290, #134 ) ) ;
#34 =( NAMED_UNIT ( * ) PLANE_ANGLE_UNIT ( ) SI_UNIT ( $, .RADIAN. ) );
#35 = CARTESIAN_POINT ( 'NONE',  ( 11.00000000000000000, 1.347111479062088405E-15, 7.000000000000000000 ) ) ;
#36 = AXIS2_PLACEMENT_3D ( 'NONE', #48, #142, #237 ) ;
#37 = DIRECTION ( 'NONE',  ( 0.000000000000000000, 0.000000000000000000, 1.000000000000000000 ) ) ;
#38 = EDGE_CURVE ( 'NONE', #140, #22, #158, .T. ) ;
#39 = AXIS2_PLACEMENT_3D ( 'NONE', #177, #294, #250 ) ;
#40 = EDGE_CURVE ( 'NONE', #129, #205, #213, .T. ) ;
#41 = AXIS2_PLACEMENT_3D ( 'NONE', #132, #150, #76 ) ;
#42 = CC_DESIGN_PERSON_AND_ORGANIZATION_ASSIGNMENT ( #267, #257, ( #251 ) ) ;
#43 = PERSON_AND_ORGANIZATION_ROLE ( 'classification_officer' ) ;
#44 = CIRCLE ( 'NONE', #36, 7.000000000000000888 ) ;
#45 = CC_DESIGN_SECURITY_CLASSIFICATION ( #280, ( #251 ) ) ;
#46 = EDGE_LOOP ( 'NONE', ( #143, #182, #72, #163 ) ) ;
#47 = APPROVAL_ROLE ( '' ) ;
#48 = CARTESIAN_POINT ( 'NONE',  ( 0.000000000000000000, 0.000000000000000000, 507.0000000000000000 ) ) ;
#49 = DESIGN_CONTEXT ( 'detailed design', #89, 'design' ) ;
#50 = EDGE_LOOP ( 'NONE', ( #195, #57, #259, #155 ) ) ;
#51 = DATE_AND_TIME ( #55, #193 ) ;
#52 = CARTESIAN_POINT ( 'NONE',  ( -7.200000000000001066, 8.817456953860944275E-16, 7.199999999999984190 ) ) ;
#53 = DIRECTION ( 'NONE',  ( 1.000000000000000000, 0.000000000000000000, 0.000000000000000000 ) ) ;
#54 = CARTESIAN_POINT ( 'NONE',  ( 11.00000000000000000, 1.347111479062088405E-15, 0.000000000000000000 ) ) ;
#55 = CALENDAR_DATE ( 2022, 7, 7 ) ;
#56 = DIRECTION ( 'NONE',  ( 0.000000000000000000, 0.000000000000000000, 1.000000000000000000 ) ) ;
#57 = ORIENTED_EDGE ( 'NONE', *, *, #208, .F. ) ;
#58 = AXIS2_PLACEMENT_3D ( 'NONE', #87, #298, #131 ) ;
#59 = PLANE ( 'NONE',  #136 ) ;
#60 = PLANE ( 'NONE',  #173 ) ;
#61 = ORIENTED_EDGE ( 'NONE', *, *, #179, .F. ) ;
#62 = ORIENTED_EDGE ( 'NONE', *, *, #253, .T. ) ;
#63 = APPLICATION_CONTEXT ( 'configuration controlled 3d designs of mechanical parts and assemblies' ) ;
#64 = AXIS2_PLACEMENT_3D ( 'NONE', #243, #21, #168 ) ;
#65 = PRODUCT_DEFINITION ( 'NEZNÁMÝ', '', #251, #49 ) ;
#66 = ADVANCED_FACE ( 'NONE', ( #271 ), #88, .F. ) ;
#67 = LOCAL_TIME ( 11, 40, 27.00000000000000000, #204 ) ;
#68 = CALENDAR_DATE ( 2022, 7, 7 ) ;
#69 = ADVANCED_FACE ( 'NONE', ( #5 ), #277, .F. ) ;
#70 = ORIENTED_EDGE ( 'NONE', *, *, #161, .F. ) ;
#71 = DIRECTION ( 'NONE',  ( 0.000000000000000000, 0.000000000000000000, 1.000000000000000000 ) ) ;
#72 = ORIENTED_EDGE ( 'NONE', *, *, #212, .T. ) ;
#73 = CARTESIAN_POINT ( 'NONE',  ( 0.000000000000000000, 0.000000000000000000, 7.199999999999984190 ) ) ;
#74 = PERSON_AND_ORGANIZATION ( #111, #209 ) ;
#75 = CARTESIAN_POINT ( 'NONE',  ( 0.000000000000000000, 0.000000000000000000, 7.000000000000000000 ) ) ;
#76 = DIRECTION ( 'NONE',  ( 0.000000000000000000, 0.000000000000000000, -1.000000000000000000 ) ) ;
#77 = EDGE_LOOP ( 'NONE', ( #207, #201, #61, #281 ) ) ;
#78 = ADVANCED_FACE ( 'NONE', ( #119 ), #192, .T. ) ;
#79 = COORDINATED_UNIVERSAL_TIME_OFFSET ( 1, 0, .AHEAD. ) ;
#80 = DIRECTION ( 'NONE',  ( 1.000000000000000000, 0.000000000000000000, 0.000000000000000000 ) ) ;
#81 = DIRECTION ( 'NONE',  ( 0.000000000000000000, 0.000000000000000000, 1.000000000000000000 ) ) ;
#82 = VERTEX_POINT ( 'NONE', #93 ) ;
#83 = DIRECTION ( 'NONE',  ( -1.000000000000000000, 0.000000000000000000, 0.000000000000000000 ) ) ;
#84 = CARTESIAN_POINT ( 'NONE',  ( 11.00000000000000000, 1.347111479062088405E-15, 7.000000000000000000 ) ) ;
#85 = EDGE_LOOP ( 'NONE', ( #188, #62, #159, #26 ) ) ;
#86 = MECHANICAL_CONTEXT ( 'NONE', #63, 'mechanical' ) ;
#87 = CARTESIAN_POINT ( 'NONE',  ( 0.000000000000000000, 0.000000000000000000, 507.0000000000000000 ) ) ;
#88 = TOROIDAL_SURFACE ( 'NONE', #269, 7.200000000000001066, 0.2000000000000000111 ) ;
#89 = APPLICATION_CONTEXT ( 'configuration controlled 3d designs of mechanical parts and assemblies' ) ;
#90 = ADVANCED_FACE ( 'NONE', ( #202, #3 ), #59, .T. ) ;
#91 = UNCERTAINTY_MEASURE_WITH_UNIT (LENGTH_MEASURE( 1.000000000000000082E-05 ), #228, 'distance_accuracy_value', 'NONE');
#92 = ORIENTED_EDGE ( 'NONE', *, *, #179, .T. ) ;
#93 = CARTESIAN_POINT ( 'NONE',  ( 7.000000000000000888, 8.572527594031474176E-16, 7.199999999999984190 ) ) ;
#94 = DIRECTION ( 'NONE',  ( 1.000000000000000000, 0.000000000000000000, 0.000000000000000000 ) ) ;
#95 = ORIENTED_EDGE ( 'NONE', *, *, #278, .F. ) ;
#96 = PERSON_AND_ORGANIZATION_ROLE ( 'creator' ) ;
#97 = CARTESIAN_POINT ( 'NONE',  ( 0.000000000000000000, 0.000000000000000000, 7.000000000000000000 ) ) ;
#98 = APPROVAL ( #240, 'NEURÈENÝ' ) ;
#99 = FACE_OUTER_BOUND ( 'NONE', #274, .T. ) ;
#100 = DATE_AND_TIME ( #242, #114 ) ;
#101 = CARTESIAN_POINT ( 'NONE',  ( -7.200000000000001066, 8.817456953860944275E-16, 6.999999999999992006 ) ) ;
#102 = PLANE ( 'NONE',  #231 ) ;
#103 = FACE_OUTER_BOUND ( 'NONE', #50, .T. ) ;
#104 = APPROVAL_ROLE ( '' ) ;
#105 = AXIS2_PLACEMENT_3D ( 'NONE', #24, #200, #127 ) ;
#106 = VERTEX_POINT ( 'NONE', #247 ) ;
#107 = EDGE_CURVE ( 'NONE', #220, #82, #6, .T. ) ;
#108 = ORIENTED_EDGE ( 'NONE', *, *, #40, .F. ) ;
#109 = CC_DESIGN_APPROVAL ( #98, ( #65 ) ) ;
#110 = CC_DESIGN_DATE_AND_TIME_ASSIGNMENT ( #100, #191, ( #280 ) ) ;
#111 = PERSON ( 'NEURÈENÝ', 'NEURÈENÝ', 'NEURÈENÝ', ('NEURÈENÝ'), ('NEURÈENÝ'), ('NEURÈENÝ') ) ;
#112 = CIRCLE ( 'NONE', #185, 11.00000000000000000 ) ;
#113 = APPROVAL ( #196, 'NEURÈENÝ' ) ;
#114 = LOCAL_TIME ( 11, 40, 27.00000000000000000, #167 ) ;
#115 = CIRCLE ( 'NONE', #295, 7.000000000000000888 ) ;
#116 = EDGE_CURVE ( 'NONE', #238, #227, #112, .T. ) ;
#117 = DATE_AND_TIME ( #282, #151 ) ;
#118 = DATE_AND_TIME ( #68, #176 ) ;
#119 = FACE_OUTER_BOUND ( 'NONE', #85, .T. ) ;
#120 = EDGE_LOOP ( 'NONE', ( #95, #11, #284, #236 ) ) ;
#121 = SHAPE_DEFINITION_REPRESENTATION ( #255, #234 ) ;
#122 = CARTESIAN_POINT ( 'NONE',  ( 0.000000000000000000, 0.000000000000000000, 7.000000000000000000 ) ) ;
#123 = ADVANCED_FACE ( 'NONE', ( #103 ), #32, .T. ) ;
#124 = CIRCLE ( 'NONE', #18, 7.000000000000000888 ) ;
#125 = CC_DESIGN_APPROVAL ( #210, ( #280 ) ) ;
#126 = ORIENTED_EDGE ( 'NONE', *, *, #278, .T. ) ;
#127 = DIRECTION ( 'NONE',  ( 1.000000000000000000, 0.000000000000000000, 0.000000000000000000 ) ) ;
#128 = CARTESIAN_POINT ( 'NONE',  ( -7.000000000000000888, 0.000000000000000000, 7.199999999999984190 ) ) ;
#129 = VERTEX_POINT ( 'NONE', #101 ) ;
#130 = CARTESIAN_POINT ( 'NONE',  ( -7.000000000000000888, 0.000000000000000000, 507.0000000000000000 ) ) ;
#131 = DIRECTION ( 'NONE',  ( -1.000000000000000000, 0.000000000000000000, 0.000000000000000000 ) ) ;
#132 = CARTESIAN_POINT ( 'NONE',  ( 7.200000000000001066, 0.000000000000000000, 7.199999999999984190 ) ) ;
#133 = AXIS2_PLACEMENT_3D ( 'NONE', #73, #56, #172 ) ;
#134 = ORIENTED_EDGE ( 'NONE', *, *, #224, .F. ) ;
#135 = CC_DESIGN_DATE_AND_TIME_ASSIGNMENT ( #117, #23, ( #65 ) ) ;
#136 = AXIS2_PLACEMENT_3D ( 'NONE', #97, #285, #226 ) ;
#137 = CIRCLE ( 'NONE', #160, 0.1999999999999996503 ) ;
#138 = CIRCLE ( 'NONE', #10, 7.000000000000000888 ) ;
#139 = APPROVAL_PERSON_ORGANIZATION ( #28, #210, #260 ) ;
#140 = VERTEX_POINT ( 'NONE', #189 ) ;
#141 = APPROVAL_DATE_TIME ( #118, #210 ) ;
#142 = DIRECTION ( 'NONE',  ( 0.000000000000000000, 0.000000000000000000, 1.000000000000000000 ) ) ;
#143 = ORIENTED_EDGE ( 'NONE', *, *, #107, .F. ) ;
#144 = EDGE_CURVE ( 'NONE', #82, #306, #124, .T. ) ;
#145 = DIRECTION ( 'NONE',  ( 1.000000000000000000, 0.000000000000000000, 0.000000000000000000 ) ) ;
#146 = APPLICATION_PROTOCOL_DEFINITION ( 'international standard', 'config_control_design', 1994, #89 ) ;
#147 = DIRECTION ( 'NONE',  ( 1.000000000000000000, 0.000000000000000000, -0.000000000000000000 ) ) ;
#148 = PERSON_AND_ORGANIZATION ( #111, #209 ) ;
#149 = DIRECTION ( 'NONE',  ( -0.000000000000000000, -0.000000000000000000, -1.000000000000000000 ) ) ;
#150 = DIRECTION ( 'NONE',  ( 0.000000000000000000, -1.000000000000000000, 0.000000000000000000 ) ) ;
#151 = LOCAL_TIME ( 11, 40, 27.00000000000000000, #291 ) ;
#152 = ORIENTED_EDGE ( 'NONE', *, *, #40, .T. ) ;
#153 = DIRECTION ( 'NONE',  ( -0.000000000000000000, -0.000000000000000000, -1.000000000000000000 ) ) ;
#154 = FACE_OUTER_BOUND ( 'NONE', #33, .T. ) ;
#155 = ORIENTED_EDGE ( 'NONE', *, *, #38, .T. ) ;
#156 = DIRECTION ( 'NONE',  ( 1.000000000000000000, 0.000000000000000000, -0.000000000000000000 ) ) ;
#157 = CYLINDRICAL_SURFACE ( 'NONE', #58, 7.000000000000000888 ) ;
#158 = CIRCLE ( 'NONE', #39, 11.00000000000000000 ) ;
#159 = ORIENTED_EDGE ( 'NONE', *, *, #224, .T. ) ;
#160 = AXIS2_PLACEMENT_3D ( 'NONE', #52, #217, #283 ) ;
#161 = EDGE_CURVE ( 'NONE', #306, #129, #137, .T. ) ;
#162 = PERSON_AND_ORGANIZATION ( #111, #209 ) ;
#163 = ORIENTED_EDGE ( 'NONE', *, *, #287, .T. ) ;
#164 = CARTESIAN_POINT ( 'NONE',  ( -11.00000000000000000, 0.000000000000000000, 7.000000000000000000 ) ) ;
#165 = CIRCLE ( 'NONE', #303, 11.00000000000000000 ) ;
#166 = CC_DESIGN_PERSON_AND_ORGANIZATION_ASSIGNMENT ( #148, #96, ( #251 ) ) ;
#167 = COORDINATED_UNIVERSAL_TIME_OFFSET ( 1, 0, .AHEAD. ) ;
#168 = DIRECTION ( 'NONE',  ( -1.000000000000000000, 0.000000000000000000, 0.000000000000000000 ) ) ;
#169 = CARTESIAN_POINT ( 'NONE',  ( 0.000000000000000000, 0.000000000000000000, 7.000000000000000000 ) ) ;
#170 = ORIENTED_EDGE ( 'NONE', *, *, #230, .T. ) ;
#171 = PERSON_AND_ORGANIZATION ( #111, #209 ) ;
#172 = DIRECTION ( 'NONE',  ( 1.000000000000000000, 0.000000000000000000, 0.000000000000000000 ) ) ;
#173 = AXIS2_PLACEMENT_3D ( 'NONE', #270, #81, #156 ) ;
#174 = DIRECTION ( 'NONE',  ( -0.000000000000000000, -0.000000000000000000, -1.000000000000000000 ) ) ;
#175 = VECTOR ( 'NONE', #149, 1000.000000000000000 ) ;
#176 = LOCAL_TIME ( 11, 40, 27.00000000000000000, #79 ) ;
#177 = CARTESIAN_POINT ( 'NONE',  ( 0.000000000000000000, 0.000000000000000000, 0.000000000000000000 ) ) ;
#178 = CARTESIAN_POINT ( 'NONE',  ( 0.000000000000000000, 0.000000000000000000, 7.199999999999984190 ) ) ;
#179 = EDGE_CURVE ( 'NONE', #205, #129, #279, .T. ) ;
#180 = CARTESIAN_POINT ( 'NONE',  ( 0.000000000000000000, 0.000000000000000000, 507.0000000000000000 ) ) ;
#181 = DIRECTION ( 'NONE',  ( 0.000000000000000000, 0.000000000000000000, 1.000000000000000000 ) ) ;
#182 = ORIENTED_EDGE ( 'NONE', *, *, #230, .F. ) ;
#183 = AXIS2_PLACEMENT_3D ( 'NONE', #122, #292, #145 ) ;
#184 = MANIFOLD_SOLID_BREP ( 'Zaoblit1', #203 ) ;
#185 = AXIS2_PLACEMENT_3D ( 'NONE', #288, #71, #215 ) ;
#186 = CC_DESIGN_APPROVAL ( #113, ( #251 ) ) ;
#187 = EDGE_CURVE ( 'NONE', #227, #140, #307, .T. ) ;
#188 = ORIENTED_EDGE ( 'NONE', *, *, #116, .F. ) ;
#189 = CARTESIAN_POINT ( 'NONE',  ( -11.00000000000000000, 0.000000000000000000, 0.000000000000000000 ) ) ;
#190 = ORIENTED_EDGE ( 'NONE', *, *, #116, .T. ) ;
#191 = DATE_TIME_ROLE ( 'classification_date' ) ;
#192 = CYLINDRICAL_SURFACE ( 'NONE', #64, 11.00000000000000000 ) ;
#193 = LOCAL_TIME ( 11, 40, 27.00000000000000000, #263 ) ;
#194 = CARTESIAN_POINT ( 'NONE',  ( 0.000000000000000000, 0.000000000000000000, 0.000000000000000000 ) ) ;
#195 = ORIENTED_EDGE ( 'NONE', *, *, #253, .F. ) ;
#196 = APPROVAL_STATUS ( 'not_yet_approved' ) ;
#197 = CARTESIAN_POINT ( 'NONE',  ( 7.200000000000001066, 0.000000000000000000, 6.999999999999992006 ) ) ;
#198 = CARTESIAN_POINT ( 'NONE',  ( 0.000000000000000000, 0.000000000000000000, 7.000000000000000000 ) ) ;
#199 = PERSON_AND_ORGANIZATION ( #111, #209 ) ;
#200 = DIRECTION ( 'NONE',  ( 0.000000000000000000, 0.000000000000000000, 1.000000000000000000 ) ) ;
#201 = ORIENTED_EDGE ( 'NONE', *, *, #161, .T. ) ;
#202 = FACE_BOUND ( 'NONE', #1, .T. ) ;
#203 = CLOSED_SHELL ( 'NONE', ( #66, #19, #78, #123, #90, #258, #299, #9, #69 ) ) ;
#204 = COORDINATED_UNIVERSAL_TIME_OFFSET ( 1, 0, .AHEAD. ) ;
#205 = VERTEX_POINT ( 'NONE', #197 ) ;
#206 =( NAMED_UNIT ( * ) SI_UNIT ( $, .STERADIAN. ) SOLID_ANGLE_UNIT ( ) );
#207 = ORIENTED_EDGE ( 'NONE', *, *, #287, .F. ) ;
#208 = EDGE_CURVE ( 'NONE', #227, #238, #165, .T. ) ;
#209 = ORGANIZATION ( 'NEURÈENÝ', 'NEURÈENÝ', '' ) ;
#210 = APPROVAL ( #20, 'NEURÈENÝ' ) ;
#211 = CIRCLE ( 'NONE', #41, 0.1999999999999996503 ) ;
#212 = EDGE_CURVE ( 'NONE', #106, #306, #239, .T. ) ;
#213 = CIRCLE ( 'NONE', #15, 7.200000000000001066 ) ;
#214 = APPROVAL_DATE_TIME ( #51, #113 ) ;
#215 = DIRECTION ( 'NONE',  ( 1.000000000000000000, 0.000000000000000000, 0.000000000000000000 ) ) ;
#216 = APPROVAL_DATE_TIME ( #25, #98 ) ;
#217 = DIRECTION ( 'NONE',  ( 1.224646799147353207E-16, 1.000000000000000000, -0.000000000000000000 ) ) ;
#218 = APPROVAL_PERSON_ORGANIZATION ( #74, #98, #104 ) ;
#219 = CARTESIAN_POINT ( 'NONE',  ( 0.000000000000000000, 0.000000000000000000, 7.199999999999984190 ) ) ;
#220 = VERTEX_POINT ( 'NONE', #261 ) ;
#221 = SECURITY_CLASSIFICATION_LEVEL ( 'unclassified' ) ;
#222 = CARTESIAN_POINT ( 'NONE',  ( -11.00000000000000000, 0.000000000000000000, 7.000000000000000000 ) ) ;
#223 = DIRECTION ( 'NONE',  ( 1.000000000000000000, 0.000000000000000000, 0.000000000000000000 ) ) ;
#224 = EDGE_CURVE ( 'NONE', #22, #140, #302, .T. ) ;
#225 = EDGE_LOOP ( 'NONE', ( #8, #190 ) ) ;
#226 = DIRECTION ( 'NONE',  ( 1.000000000000000000, 0.000000000000000000, -0.000000000000000000 ) ) ;
#227 = VERTEX_POINT ( 'NONE', #222 ) ;
#228 =( LENGTH_UNIT ( ) NAMED_UNIT ( * ) SI_UNIT ( .MILLI., .METRE. ) );
#229 = ORIENTED_EDGE ( 'NONE', *, *, #144, .F. ) ;
#230 = EDGE_CURVE ( 'NONE', #106, #220, #44, .T. ) ;
#231 = AXIS2_PLACEMENT_3D ( 'NONE', #31, #37, #147 ) ;
#232 = PRODUCT ( 'f95a', 'f95a', '', ( #86 ) ) ;
#233 =( GEOMETRIC_REPRESENTATION_CONTEXT ( 3 ) GLOBAL_UNCERTAINTY_ASSIGNED_CONTEXT ( ( #91 ) ) GLOBAL_UNIT_ASSIGNED_CONTEXT ( ( #228, #34, #206 ) ) REPRESENTATION_CONTEXT ( 'NONE', 'WORKASPACE' ) );
#234 = ADVANCED_BREP_SHAPE_REPRESENTATION ( 'f95a', ( #184, #276 ), #233 ) ;
#235 = VECTOR ( 'NONE', #153, 1000.000000000000000 ) ;
#236 = ORIENTED_EDGE ( 'NONE', *, *, #212, .F. ) ;
#237 = DIRECTION ( 'NONE',  ( 1.000000000000000000, 0.000000000000000000, 0.000000000000000000 ) ) ;
#238 = VERTEX_POINT ( 'NONE', #35 ) ;
#239 = LINE ( 'NONE', #130, #175 ) ;
#240 = APPROVAL_STATUS ( 'not_yet_approved' ) ;
#241 = DIRECTION ( 'NONE',  ( 1.000000000000000000, 0.000000000000000000, 0.000000000000000000 ) ) ;
#242 = CALENDAR_DATE ( 2022, 7, 7 ) ;
#243 = CARTESIAN_POINT ( 'NONE',  ( 0.000000000000000000, 0.000000000000000000, 7.000000000000000000 ) ) ;
#244 = VECTOR ( 'NONE', #174, 1000.000000000000000 ) ;
#245 = FACE_OUTER_BOUND ( 'NONE', #46, .T. ) ;
#246 = CARTESIAN_POINT ( 'NONE',  ( 0.000000000000000000, 0.000000000000000000, 7.199999999999984190 ) ) ;
#247 = CARTESIAN_POINT ( 'NONE',  ( -7.000000000000000888, 0.000000000000000000, 507.0000000000000000 ) ) ;
#248 = APPLICATION_PROTOCOL_DEFINITION ( 'international standard', 'config_control_design', 1994, #63 ) ;
#249 = CYLINDRICAL_SURFACE ( 'NONE', #13, 7.000000000000000888 ) ;
#250 = DIRECTION ( 'NONE',  ( 1.000000000000000000, 0.000000000000000000, 0.000000000000000000 ) ) ;
#251 = PRODUCT_DEFINITION_FORMATION_WITH_SPECIFIED_SOURCE ( 'LIBOVOLNÝ', '', #232, .NOT_KNOWN. ) ;
#252 = EDGE_LOOP ( 'NONE', ( #70, #229, #304, #108 ) ) ;
#253 = EDGE_CURVE ( 'NONE', #238, #22, #4, .T. ) ;
#254 = AXIS2_PLACEMENT_3D ( 'NONE', #75, #305, #83 ) ;
#255 = PRODUCT_DEFINITION_SHAPE ( 'NONE', 'NONE',  #65 ) ;
#256 = EDGE_CURVE ( 'NONE', #82, #205, #211, .T. ) ;
#257 = PERSON_AND_ORGANIZATION_ROLE ( 'design_supplier' ) ;
#258 = ADVANCED_FACE ( 'NONE', ( #154 ), #60, .F. ) ;
#259 = ORIENTED_EDGE ( 'NONE', *, *, #187, .T. ) ;
#260 = APPROVAL_ROLE ( '' ) ;
#261 = CARTESIAN_POINT ( 'NONE',  ( 7.000000000000000888, 8.572527594031474176E-16, 507.0000000000000000 ) ) ;
#262 = DIRECTION ( 'NONE',  ( 0.000000000000000000, 0.000000000000000000, 1.000000000000000000 ) ) ;
#263 = COORDINATED_UNIVERSAL_TIME_OFFSET ( 1, 0, .AHEAD. ) ;
#264 = DIRECTION ( 'NONE',  ( 0.000000000000000000, 0.000000000000000000, 1.000000000000000000 ) ) ;
#265 = DIRECTION ( 'NONE',  ( -1.000000000000000000, 0.000000000000000000, 0.000000000000000000 ) ) ;
#266 = DIRECTION ( 'NONE',  ( -0.000000000000000000, -0.000000000000000000, -1.000000000000000000 ) ) ;
#267 = PERSON_AND_ORGANIZATION ( #111, #209 ) ;
#268 = DIRECTION ( 'NONE',  ( -0.000000000000000000, -0.000000000000000000, -1.000000000000000000 ) ) ;
#269 = AXIS2_PLACEMENT_3D ( 'NONE', #246, #181, #241 ) ;
#270 = CARTESIAN_POINT ( 'NONE',  ( 0.000000000000000000, 0.000000000000000000, 0.000000000000000000 ) ) ;
#271 = FACE_OUTER_BOUND ( 'NONE', #77, .T. ) ;
#272 = PRODUCT_RELATED_PRODUCT_CATEGORY ( 'detail', '', ( #232 ) ) ;
#273 = DIRECTION ( 'NONE',  ( 0.000000000000000000, 0.000000000000000000, 1.000000000000000000 ) ) ;
#274 = EDGE_LOOP ( 'NONE', ( #170, #126 ) ) ;
#275 = DIRECTION ( 'NONE',  ( 1.000000000000000000, 0.000000000000000000, 0.000000000000000000 ) ) ;
#276 = AXIS2_PLACEMENT_3D ( 'NONE', #194, #293, #53 ) ;
#277 = TOROIDAL_SURFACE ( 'NONE', #133, 7.200000000000001066, 0.2000000000000000111 ) ;
#278 = EDGE_CURVE ( 'NONE', #220, #106, #115, .T. ) ;
#279 = CIRCLE ( 'NONE', #183, 7.200000000000001066 ) ;
#280 = SECURITY_CLASSIFICATION ( '', '', #221 ) ;
#281 = ORIENTED_EDGE ( 'NONE', *, *, #256, .F. ) ;
#282 = CALENDAR_DATE ( 2022, 7, 7 ) ;
#283 = DIRECTION ( 'NONE',  ( -1.000000000000000000, 1.224646799147358384E-16, 0.000000000000000000 ) ) ;
#284 = ORIENTED_EDGE ( 'NONE', *, *, #144, .T. ) ;
#285 = DIRECTION ( 'NONE',  ( 0.000000000000000000, 0.000000000000000000, 1.000000000000000000 ) ) ;
#286 = PERSON_AND_ORGANIZATION_ROLE ( 'design_owner' ) ;
#287 = EDGE_CURVE ( 'NONE', #306, #82, #138, .T. ) ;
#288 = CARTESIAN_POINT ( 'NONE',  ( 0.000000000000000000, 0.000000000000000000, 7.000000000000000000 ) ) ;
#289 = CARTESIAN_POINT ( 'NONE',  ( 0.000000000000000000, 0.000000000000000000, 507.0000000000000000 ) ) ;
#290 = ORIENTED_EDGE ( 'NONE', *, *, #38, .F. ) ;
#291 = COORDINATED_UNIVERSAL_TIME_OFFSET ( 1, 0, .AHEAD. ) ;
#292 = DIRECTION ( 'NONE',  ( -0.000000000000000000, -0.000000000000000000, -1.000000000000000000 ) ) ;
#293 = DIRECTION ( 'NONE',  ( 0.000000000000000000, 0.000000000000000000, 1.000000000000000000 ) ) ;
#294 = DIRECTION ( 'NONE',  ( 0.000000000000000000, 0.000000000000000000, 1.000000000000000000 ) ) ;
#295 = AXIS2_PLACEMENT_3D ( 'NONE', #180, #273, #223 ) ;
#296 = CARTESIAN_POINT ( 'NONE',  ( 7.000000000000000888, 8.572527594031474176E-16, 507.0000000000000000 ) ) ;
#297 = CALENDAR_DATE ( 2022, 7, 7 ) ;
#298 = DIRECTION ( 'NONE',  ( -0.000000000000000000, -0.000000000000000000, -1.000000000000000000 ) ) ;
#299 = ADVANCED_FACE ( 'NONE', ( #245 ), #249, .T. ) ;
#300 = DIRECTION ( 'NONE',  ( 0.000000000000000000, 0.000000000000000000, 1.000000000000000000 ) ) ;
#301 = FACE_OUTER_BOUND ( 'NONE', #120, .T. ) ;
#302 = CIRCLE ( 'NONE', #105, 11.00000000000000000 ) ;
#303 = AXIS2_PLACEMENT_3D ( 'NONE', #169, #264, #80 ) ;
#304 = ORIENTED_EDGE ( 'NONE', *, *, #256, .T. ) ;
#305 = DIRECTION ( 'NONE',  ( -0.000000000000000000, -0.000000000000000000, -1.000000000000000000 ) ) ;
#306 = VERTEX_POINT ( 'NONE', #128 ) ;
#307 = LINE ( 'NONE', #164, #27 ) ;
ENDSEC;
END-ISO-10303-21;
