ISO-10303-21;
HEADER;
FILE_DESCRIPTION (( 'STEP AP203' ),
    '1' );
FILE_NAME ('0ec4.STEP',
    '2022-07-07T09:44:47',
    ( '' ),
    ( '' ),
    'SwSTEP 2.0',
    'SolidWorks 2019',
    '' );
FILE_SCHEMA (( 'CONFIG_CONTROL_DESIGN' ));
ENDSEC;

DATA;
#1 = FACE_OUTER_BOUND ( 'NONE', #283, .T. ) ;
#2 = ADVANCED_FACE ( 'NONE', ( #1 ), #290, .F. ) ;
#3 = CARTESIAN_POINT ( 'NONE',  ( 0.000000000000000000, 0.000000000000000000, 7.000000000000000000 ) ) ;
#4 = LOCAL_TIME ( 11, 44, 47.00000000000000000, #271 ) ;
#5 = CARTESIAN_POINT ( 'NONE',  ( 0.000000000000000000, 0.000000000000000000, 7.000000000000000000 ) ) ;
#6 = CARTESIAN_POINT ( 'NONE',  ( 0.000000000000000000, 0.000000000000000000, 7.000000000000000000 ) ) ;
#7 = CARTESIAN_POINT ( 'NONE',  ( 0.000000000000000000, 0.000000000000000000, 257.0000000000000000 ) ) ;
#8 = PERSON_AND_ORGANIZATION ( #29, #131 ) ;
#9 = AXIS2_PLACEMENT_3D ( 'NONE', #294, #270, #206 ) ;
#10 = DIRECTION ( 'NONE',  ( -0.000000000000000000, -0.000000000000000000, -1.000000000000000000 ) ) ;
#11 = CIRCLE ( 'NONE', #9, 6.299999999999998934 ) ;
#12 = SHAPE_DEFINITION_REPRESENTATION ( #100, #71 ) ;
#13 = CC_DESIGN_DATE_AND_TIME_ASSIGNMENT ( #110, #224, ( #124 ) ) ;
#14 = FACE_OUTER_BOUND ( 'NONE', #68, .T. ) ;
#15 = APPLICATION_PROTOCOL_DEFINITION ( 'international standard', 'config_control_design', 1994, #136 ) ;
#16 = LINE ( 'NONE', #133, #91 ) ;
#17 = COORDINATED_UNIVERSAL_TIME_OFFSET ( 1, 0, .AHEAD. ) ;
#18 =( NAMED_UNIT ( * ) PLANE_ANGLE_UNIT ( ) SI_UNIT ( $, .RADIAN. ) );
#19 = PERSON_AND_ORGANIZATION ( #29, #131 ) ;
#20 = ORIENTED_EDGE ( 'NONE', *, *, #212, .T. ) ;
#21 = ORIENTED_EDGE ( 'NONE', *, *, #125, .F. ) ;
#22 = DIRECTION ( 'NONE',  ( 0.000000000000000000, 0.000000000000000000, 1.000000000000000000 ) ) ;
#23 = ORIENTED_EDGE ( 'NONE', *, *, #297, .T. ) ;
#24 = AXIS2_PLACEMENT_3D ( 'NONE', #5, #104, #37 ) ;
#25 = DESIGN_CONTEXT ( 'detailed design', #170, 'design' ) ;
#26 = EDGE_LOOP ( 'NONE', ( #171, #235, #20, #157 ) ) ;
#27 = DIRECTION ( 'NONE',  ( 1.000000000000000000, 0.000000000000000000, 0.000000000000000000 ) ) ;
#28 = CC_DESIGN_PERSON_AND_ORGANIZATION_ASSIGNMENT ( #43, #143, ( #145 ) ) ;
#29 = PERSON ( 'NEURÈENÝ', 'NEURÈENÝ', 'NEURÈENÝ', ('NEURÈENÝ'), ('NEURÈENÝ'), ('NEURÈENÝ') ) ;
#30 = DIRECTION ( 'NONE',  ( 1.224646799147353207E-16, 1.000000000000000000, -0.000000000000000000 ) ) ;
#31 = AXIS2_PLACEMENT_3D ( 'NONE', #103, #173, #195 ) ;
#32 = CARTESIAN_POINT ( 'NONE',  ( -9.000000000000000000, 0.000000000000000000, 0.000000000000000000 ) ) ;
#33 = DIRECTION ( 'NONE',  ( 1.000000000000000000, 0.000000000000000000, 0.000000000000000000 ) ) ;
#34 = CALENDAR_DATE ( 2022, 7, 7 ) ;
#35 = APPROVAL_DATE_TIME ( #250, #303 ) ;
#36 = APPROVAL_PERSON_ORGANIZATION ( #19, #41, #87 ) ;
#37 = DIRECTION ( 'NONE',  ( 1.000000000000000000, 0.000000000000000000, 0.000000000000000000 ) ) ;
#38 = MANIFOLD_SOLID_BREP ( 'Zaoblit1', #243 ) ;
#39 = ADVANCED_FACE ( 'NONE', ( #52 ), #102, .T. ) ;
#40 = CARTESIAN_POINT ( 'NONE',  ( 0.000000000000000000, 0.000000000000000000, 7.200000000000011724 ) ) ;
#41 = APPROVAL ( #211, 'NEURÈENÝ' ) ;
#42 =( LENGTH_UNIT ( ) NAMED_UNIT ( * ) SI_UNIT ( .MILLI., .METRE. ) );
#43 = PERSON_AND_ORGANIZATION ( #29, #131 ) ;
#44 = AXIS2_PLACEMENT_3D ( 'NONE', #6, #10, #251 ) ;
#45 = VERTEX_POINT ( 'NONE', #288 ) ;
#46 = VERTEX_POINT ( 'NONE', #75 ) ;
#47 = CIRCLE ( 'NONE', #257, 9.000000000000000000 ) ;
#48 = APPROVAL ( #231, 'NEURÈENÝ' ) ;
#49 = DIRECTION ( 'NONE',  ( 0.000000000000000000, 0.000000000000000000, 1.000000000000000000 ) ) ;
#50 = ORIENTED_EDGE ( 'NONE', *, *, #148, .F. ) ;
#51 = AXIS2_PLACEMENT_3D ( 'NONE', #185, #179, #268 ) ;
#52 = FACE_OUTER_BOUND ( 'NONE', #216, .T. ) ;
#53 = ORIENTED_EDGE ( 'NONE', *, *, #201, .F. ) ;
#54 = ORIENTED_EDGE ( 'NONE', *, *, #293, .T. ) ;
#55 = LOCAL_TIME ( 11, 44, 47.00000000000000000, #17 ) ;
#56 = DIRECTION ( 'NONE',  ( 0.000000000000000000, 0.000000000000000000, 1.000000000000000000 ) ) ;
#57 = CARTESIAN_POINT ( 'NONE',  ( 0.000000000000000000, 0.000000000000000000, 257.0000000000000000 ) ) ;
#58 = CALENDAR_DATE ( 2022, 7, 7 ) ;
#59 = DIRECTION ( 'NONE',  ( 0.000000000000000000, 0.000000000000000000, 1.000000000000000000 ) ) ;
#60 = EDGE_CURVE ( 'NONE', #285, #152, #267, .T. ) ;
#61 = CARTESIAN_POINT ( 'NONE',  ( -6.299999999999998934, 7.715274834628324392E-16, 7.000000000000006217 ) ) ;
#62 = DATE_TIME_ROLE ( 'creation_date' ) ;
#63 = LINE ( 'NONE', #109, #238 ) ;
#64 = CALENDAR_DATE ( 2022, 7, 7 ) ;
#65 = ADVANCED_FACE ( 'NONE', ( #154 ), #155, .T. ) ;
#66 = ORIENTED_EDGE ( 'NONE', *, *, #85, .F. ) ;
#67 = LOCAL_TIME ( 11, 44, 47.00000000000000000, #161 ) ;
#68 = EDGE_LOOP ( 'NONE', ( #305, #234, #127, #280 ) ) ;
#69 = EDGE_LOOP ( 'NONE', ( #21, #239, #147, #54 ) ) ;
#70 = ADVANCED_FACE ( 'NONE', ( #178 ), #123, .F. ) ;
#71 = ADVANCED_BREP_SHAPE_REPRESENTATION ( '0ec4', ( #38, #169 ), #262 ) ;
#72 = CIRCLE ( 'NONE', #24, 9.000000000000000000 ) ;
#73 = VERTEX_POINT ( 'NONE', #196 ) ;
#74 = DIRECTION ( 'NONE',  ( -1.000000000000000000, 0.000000000000000000, 0.000000000000000000 ) ) ;
#75 = CARTESIAN_POINT ( 'NONE',  ( 9.000000000000000000, 1.102182119232617714E-15, 7.000000000000000000 ) ) ;
#76 = VECTOR ( 'NONE', #222, 1000.000000000000000 ) ;
#77 = UNCERTAINTY_MEASURE_WITH_UNIT (LENGTH_MEASURE( 1.000000000000000082E-05 ), #42, 'distance_accuracy_value', 'NONE');
#78 = CARTESIAN_POINT ( 'NONE',  ( -6.299999999999998934, 7.715274834628324392E-16, 7.200000000000011724 ) ) ;
#79 = DIRECTION ( 'NONE',  ( -1.000000000000000000, 1.224646799147353454E-16, 0.000000000000000000 ) ) ;
#80 = EDGE_CURVE ( 'NONE', #46, #97, #226, .T. ) ;
#81 = DIRECTION ( 'NONE',  ( 1.000000000000000000, 0.000000000000000000, -0.000000000000000000 ) ) ;
#82 = CC_DESIGN_APPROVAL ( #41, ( #145 ) ) ;
#83 = CARTESIAN_POINT ( 'NONE',  ( 6.299999999999998934, 0.000000000000000000, 7.200000000000011724 ) ) ;
#84 = APPROVAL_DATE_TIME ( #184, #48 ) ;
#85 = EDGE_CURVE ( 'NONE', #45, #233, #210, .T. ) ;
#86 = FACE_BOUND ( 'NONE', #220, .T. ) ;
#87 = APPROVAL_ROLE ( '' ) ;
#88 = DIRECTION ( 'NONE',  ( -0.000000000000000000, -0.000000000000000000, -1.000000000000000000 ) ) ;
#89 = CC_DESIGN_PERSON_AND_ORGANIZATION_ASSIGNMENT ( #168, #255, ( #145 ) ) ;
#90 = APPROVAL_ROLE ( '' ) ;
#91 = VECTOR ( 'NONE', #88, 1000.000000000000000 ) ;
#92 = DIRECTION ( 'NONE',  ( 1.000000000000000000, 0.000000000000000000, 0.000000000000000000 ) ) ;
#93 = SECURITY_CLASSIFICATION_LEVEL ( 'unclassified' ) ;
#94 = ORIENTED_EDGE ( 'NONE', *, *, #282, .T. ) ;
#95 = CIRCLE ( 'NONE', #259, 6.099999999999999645 ) ;
#96 = ADVANCED_FACE ( 'NONE', ( #266 ), #130, .T. ) ;
#97 = VERTEX_POINT ( 'NONE', #174 ) ;
#98 = DIRECTION ( 'NONE',  ( -1.000000000000000000, 0.000000000000000000, 0.000000000000000000 ) ) ;
#99 = AXIS2_PLACEMENT_3D ( 'NONE', #272, #230, #229 ) ;
#100 = PRODUCT_DEFINITION_SHAPE ( 'NONE', 'NONE',  #191 ) ;
#101 = CARTESIAN_POINT ( 'NONE',  ( 0.000000000000000000, 0.000000000000000000, 7.200000000000011724 ) ) ;
#102 = CYLINDRICAL_SURFACE ( 'NONE', #144, 9.000000000000000000 ) ;
#103 = CARTESIAN_POINT ( 'NONE',  ( 0.000000000000000000, 0.000000000000000000, 7.000000000000000000 ) ) ;
#104 = DIRECTION ( 'NONE',  ( 0.000000000000000000, 0.000000000000000000, 1.000000000000000000 ) ) ;
#105 = DIRECTION ( 'NONE',  ( -1.000000000000000000, 0.000000000000000000, 0.000000000000000000 ) ) ;
#106 = DIRECTION ( 'NONE',  ( -0.000000000000000000, -0.000000000000000000, -1.000000000000000000 ) ) ;
#107 = APPROVAL_STATUS ( 'not_yet_approved' ) ;
#108 = AXIS2_PLACEMENT_3D ( 'NONE', #3, #241, #98 ) ;
#109 = CARTESIAN_POINT ( 'NONE',  ( 6.099999999999999645, 7.470345474798854293E-16, 257.0000000000000000 ) ) ;
#110 = DATE_AND_TIME ( #34, #252 ) ;
#111 = DIRECTION ( 'NONE',  ( 1.000000000000000000, 0.000000000000000000, 0.000000000000000000 ) ) ;
#112 = FACE_OUTER_BOUND ( 'NONE', #146, .T. ) ;
#113 = DATE_AND_TIME ( #163, #67 ) ;
#114 = AXIS2_PLACEMENT_3D ( 'NONE', #197, #151, #217 ) ;
#115 = ORIENTED_EDGE ( 'NONE', *, *, #138, .T. ) ;
#116 = EDGE_CURVE ( 'NONE', #97, #46, #72, .T. ) ;
#117 = ADVANCED_FACE ( 'NONE', ( #137 ), #132, .T. ) ;
#118 = APPROVAL_PERSON_ORGANIZATION ( #8, #303, #296 ) ;
#119 = ORIENTED_EDGE ( 'NONE', *, *, #201, .T. ) ;
#120 = VERTEX_POINT ( 'NONE', #249 ) ;
#121 = CARTESIAN_POINT ( 'NONE',  ( 0.000000000000000000, 0.000000000000000000, 257.0000000000000000 ) ) ;
#122 = EDGE_LOOP ( 'NONE', ( #66, #150, #94, #53 ) ) ;
#123 = TOROIDAL_SURFACE ( 'NONE', #172, 6.299999999999998934, 0.2000000000000000111 ) ;
#124 = SECURITY_CLASSIFICATION ( '', '', #93 ) ;
#125 = EDGE_CURVE ( 'NONE', #120, #215, #63, .T. ) ;
#126 = PRODUCT ( '0ec4', '0ec4', '', ( #135 ) ) ;
#127 = ORIENTED_EDGE ( 'NONE', *, *, #240, .F. ) ;
#128 = CC_DESIGN_PERSON_AND_ORGANIZATION_ASSIGNMENT ( #207, #232, ( #126 ) ) ;
#129 = VERTEX_POINT ( 'NONE', #183 ) ;
#130 = CYLINDRICAL_SURFACE ( 'NONE', #295, 6.099999999999999645 ) ;
#131 = ORGANIZATION ( 'NEURÈENÝ', 'NEURÈENÝ', '' ) ;
#132 = PLANE ( 'NONE',  #153 ) ;
#133 = CARTESIAN_POINT ( 'NONE',  ( -9.000000000000000000, 0.000000000000000000, 7.000000000000000000 ) ) ;
#134 = ADVANCED_FACE ( 'NONE', ( #86, #112 ), #164, .T. ) ;
#135 = MECHANICAL_CONTEXT ( 'NONE', #136, 'mechanical' ) ;
#136 = APPLICATION_CONTEXT ( 'configuration controlled 3d designs of mechanical parts and assemblies' ) ;
#137 = FACE_OUTER_BOUND ( 'NONE', #261, .T. ) ;
#138 = EDGE_CURVE ( 'NONE', #46, #285, #276, .T. ) ;
#139 = DIRECTION ( 'NONE',  ( 0.000000000000000000, 0.000000000000000000, 1.000000000000000000 ) ) ;
#140 = CC_DESIGN_APPROVAL ( #48, ( #191 ) ) ;
#141 = CARTESIAN_POINT ( 'NONE',  ( 0.000000000000000000, 0.000000000000000000, 7.200000000000011724 ) ) ;
#142 = CARTESIAN_POINT ( 'NONE',  ( 0.000000000000000000, 0.000000000000000000, 7.000000000000000000 ) ) ;
#143 = PERSON_AND_ORGANIZATION_ROLE ( 'design_supplier' ) ;
#144 = AXIS2_PLACEMENT_3D ( 'NONE', #219, #242, #260 ) ;
#145 = PRODUCT_DEFINITION_FORMATION_WITH_SPECIFIED_SOURCE ( 'LIBOVOLNÝ', '', #126, .NOT_KNOWN. ) ;
#146 = EDGE_LOOP ( 'NONE', ( #177, #237 ) ) ;
#147 = ORIENTED_EDGE ( 'NONE', *, *, #159, .T. ) ;
#148 = EDGE_CURVE ( 'NONE', #152, #285, #47, .T. ) ;
#149 = CIRCLE ( 'NONE', #51, 6.099999999999999645 ) ;
#150 = ORIENTED_EDGE ( 'NONE', *, *, #227, .F. ) ;
#151 = DIRECTION ( 'NONE',  ( 0.000000000000000000, 0.000000000000000000, 1.000000000000000000 ) ) ;
#152 = VERTEX_POINT ( 'NONE', #32 ) ;
#153 = AXIS2_PLACEMENT_3D ( 'NONE', #57, #59, #298 ) ;
#154 = FACE_OUTER_BOUND ( 'NONE', #26, .T. ) ;
#155 = CYLINDRICAL_SURFACE ( 'NONE', #108, 9.000000000000000000 ) ;
#156 = CC_DESIGN_PERSON_AND_ORGANIZATION_ASSIGNMENT ( #275, #181, ( #191 ) ) ;
#157 = ORIENTED_EDGE ( 'NONE', *, *, #148, .T. ) ;
#158 = VECTOR ( 'NONE', #160, 1000.000000000000000 ) ;
#159 = EDGE_CURVE ( 'NONE', #129, #45, #208, .T. ) ;
#160 = DIRECTION ( 'NONE',  ( -0.000000000000000000, -0.000000000000000000, -1.000000000000000000 ) ) ;
#161 = COORDINATED_UNIVERSAL_TIME_OFFSET ( 1, 0, .AHEAD. ) ;
#162 = DIRECTION ( 'NONE',  ( 0.000000000000000000, 0.000000000000000000, -1.000000000000000000 ) ) ;
#163 = CALENDAR_DATE ( 2022, 7, 7 ) ;
#164 = PLANE ( 'NONE',  #304 ) ;
#165 = DIRECTION ( 'NONE',  ( 1.000000000000000000, 0.000000000000000000, 0.000000000000000000 ) ) ;
#166 = CC_DESIGN_SECURITY_CLASSIFICATION ( #124, ( #145 ) ) ;
#167 = FACE_OUTER_BOUND ( 'NONE', #69, .T. ) ;
#168 = PERSON_AND_ORGANIZATION ( #29, #131 ) ;
#169 = AXIS2_PLACEMENT_3D ( 'NONE', #254, #139, #165 ) ;
#170 = APPLICATION_CONTEXT ( 'configuration controlled 3d designs of mechanical parts and assemblies' ) ;
#171 = ORIENTED_EDGE ( 'NONE', *, *, #138, .F. ) ;
#172 = AXIS2_PLACEMENT_3D ( 'NONE', #101, #49, #27 ) ;
#173 = DIRECTION ( 'NONE',  ( 0.000000000000000000, 0.000000000000000000, 1.000000000000000000 ) ) ;
#174 = CARTESIAN_POINT ( 'NONE',  ( -9.000000000000000000, 0.000000000000000000, 7.000000000000000000 ) ) ;
#175 = CARTESIAN_POINT ( 'NONE',  ( 0.000000000000000000, 0.000000000000000000, 0.000000000000000000 ) ) ;
#176 = AXIS2_PLACEMENT_3D ( 'NONE', #7, #106, #105 ) ;
#177 = ORIENTED_EDGE ( 'NONE', *, *, #116, .T. ) ;
#178 = FACE_OUTER_BOUND ( 'NONE', #122, .T. ) ;
#179 = DIRECTION ( 'NONE',  ( 0.000000000000000000, 0.000000000000000000, 1.000000000000000000 ) ) ;
#180 = CARTESIAN_POINT ( 'NONE',  ( 0.000000000000000000, 0.000000000000000000, 0.000000000000000000 ) ) ;
#181 = PERSON_AND_ORGANIZATION_ROLE ( 'creator' ) ;
#182 = CARTESIAN_POINT ( 'NONE',  ( 0.000000000000000000, 0.000000000000000000, 7.200000000000011724 ) ) ;
#183 = CARTESIAN_POINT ( 'NONE',  ( -6.099999999999999645, 0.000000000000000000, 257.0000000000000000 ) ) ;
#184 = DATE_AND_TIME ( #64, #55 ) ;
#185 = CARTESIAN_POINT ( 'NONE',  ( 0.000000000000000000, 0.000000000000000000, 257.0000000000000000 ) ) ;
#186 = DATE_AND_TIME ( #228, #214 ) ;
#187 = PERSON_AND_ORGANIZATION ( #29, #131 ) ;
#188 = EDGE_CURVE ( 'NONE', #129, #120, #281, .T. ) ;
#189 = AXIS2_PLACEMENT_3D ( 'NONE', #40, #301, #92 ) ;
#190 = ORIENTED_EDGE ( 'NONE', *, *, #60, .F. ) ;
#191 = PRODUCT_DEFINITION ( 'NEZNÁMÝ', '', #145, #25 ) ;
#192 = ORIENTED_EDGE ( 'NONE', *, *, #227, .T. ) ;
#193 = ADVANCED_FACE ( 'NONE', ( #14 ), #269, .F. ) ;
#194 = APPROVAL_PERSON_ORGANIZATION ( #204, #48, #90 ) ;
#195 = DIRECTION ( 'NONE',  ( 1.000000000000000000, 0.000000000000000000, 0.000000000000000000 ) ) ;
#196 = CARTESIAN_POINT ( 'NONE',  ( 6.299999999999998934, 0.000000000000000000, 7.000000000000006217 ) ) ;
#197 = CARTESIAN_POINT ( 'NONE',  ( 0.000000000000000000, 0.000000000000000000, 0.000000000000000000 ) ) ;
#198 = ORIENTED_EDGE ( 'NONE', *, *, #60, .T. ) ;
#199 = EDGE_LOOP ( 'NONE', ( #278, #213, #192, #291 ) ) ;
#200 = DIRECTION ( 'NONE',  ( 0.000000000000000000, 0.000000000000000000, 1.000000000000000000 ) ) ;
#201 = EDGE_CURVE ( 'NONE', #233, #73, #245, .T. ) ;
#202 = DIRECTION ( 'NONE',  ( 0.000000000000000000, 0.000000000000000000, 1.000000000000000000 ) ) ;
#203 = AXIS2_PLACEMENT_3D ( 'NONE', #182, #56, #33 ) ;
#204 = PERSON_AND_ORGANIZATION ( #29, #131 ) ;
#205 = CARTESIAN_POINT ( 'NONE',  ( 9.000000000000000000, 1.102182119232617714E-15, 7.000000000000000000 ) ) ;
#206 = DIRECTION ( 'NONE',  ( 1.000000000000000000, 0.000000000000000000, 0.000000000000000000 ) ) ;
#207 = PERSON_AND_ORGANIZATION ( #29, #131 ) ;
#208 = LINE ( 'NONE', #274, #76 ) ;
#209 = COORDINATED_UNIVERSAL_TIME_OFFSET ( 1, 0, .AHEAD. ) ;
#210 = CIRCLE ( 'NONE', #221, 0.1999999999999996503 ) ;
#211 = APPROVAL_STATUS ( 'not_yet_approved' ) ;
#212 = EDGE_CURVE ( 'NONE', #97, #152, #16, .T. ) ;
#213 = ORIENTED_EDGE ( 'NONE', *, *, #125, .T. ) ;
#214 = LOCAL_TIME ( 11, 44, 47.00000000000000000, #209 ) ;
#215 = VERTEX_POINT ( 'NONE', #244 ) ;
#216 = EDGE_LOOP ( 'NONE', ( #258, #115, #198, #256 ) ) ;
#217 = DIRECTION ( 'NONE',  ( 1.000000000000000000, 0.000000000000000000, -0.000000000000000000 ) ) ;
#218 = ORIENTED_EDGE ( 'NONE', *, *, #240, .T. ) ;
#219 = CARTESIAN_POINT ( 'NONE',  ( 0.000000000000000000, 0.000000000000000000, 7.000000000000000000 ) ) ;
#220 = EDGE_LOOP ( 'NONE', ( #218, #119 ) ) ;
#221 = AXIS2_PLACEMENT_3D ( 'NONE', #78, #30, #79 ) ;
#222 = DIRECTION ( 'NONE',  ( -0.000000000000000000, -0.000000000000000000, -1.000000000000000000 ) ) ;
#223 = CYLINDRICAL_SURFACE ( 'NONE', #176, 6.099999999999999645 ) ;
#224 = DATE_TIME_ROLE ( 'classification_date' ) ;
#225 = DIRECTION ( 'NONE',  ( -0.000000000000000000, -0.000000000000000000, -1.000000000000000000 ) ) ;
#226 = CIRCLE ( 'NONE', #31, 9.000000000000000000 ) ;
#227 = EDGE_CURVE ( 'NONE', #215, #45, #95, .T. ) ;
#228 = CALENDAR_DATE ( 2022, 7, 7 ) ;
#229 = DIRECTION ( 'NONE',  ( 1.000000000000000000, 0.000000000000000000, 0.000000000000000000 ) ) ;
#230 = DIRECTION ( 'NONE',  ( 0.000000000000000000, 0.000000000000000000, 1.000000000000000000 ) ) ;
#231 = APPROVAL_STATUS ( 'not_yet_approved' ) ;
#232 = PERSON_AND_ORGANIZATION_ROLE ( 'design_owner' ) ;
#233 = VERTEX_POINT ( 'NONE', #61 ) ;
#234 = ORIENTED_EDGE ( 'NONE', *, *, #85, .T. ) ;
#235 = ORIENTED_EDGE ( 'NONE', *, *, #116, .F. ) ;
#236 = ADVANCED_FACE ( 'NONE', ( #167 ), #223, .T. ) ;
#237 = ORIENTED_EDGE ( 'NONE', *, *, #80, .T. ) ;
#238 = VECTOR ( 'NONE', #225, 1000.000000000000000 ) ;
#239 = ORIENTED_EDGE ( 'NONE', *, *, #188, .F. ) ;
#240 = EDGE_CURVE ( 'NONE', #73, #233, #11, .T. ) ;
#241 = DIRECTION ( 'NONE',  ( -0.000000000000000000, -0.000000000000000000, -1.000000000000000000 ) ) ;
#242 = DIRECTION ( 'NONE',  ( -0.000000000000000000, -0.000000000000000000, -1.000000000000000000 ) ) ;
#243 = CLOSED_SHELL ( 'NONE', ( #193, #96, #39, #65, #134, #2, #236, #117, #70 ) ) ;
#244 = CARTESIAN_POINT ( 'NONE',  ( 6.099999999999999645, 7.470345474798854293E-16, 7.200000000000011724 ) ) ;
#245 = CIRCLE ( 'NONE', #44, 6.299999999999998934 ) ;
#246 = PRODUCT_RELATED_PRODUCT_CATEGORY ( 'detail', '', ( #126 ) ) ;
#247 = DIRECTION ( 'NONE',  ( 0.000000000000000000, 0.000000000000000000, 1.000000000000000000 ) ) ;
#248 = COORDINATED_UNIVERSAL_TIME_OFFSET ( 1, 0, .AHEAD. ) ;
#249 = CARTESIAN_POINT ( 'NONE',  ( 6.099999999999999645, 7.470345474798854293E-16, 257.0000000000000000 ) ) ;
#250 = DATE_AND_TIME ( #58, #4 ) ;
#251 = DIRECTION ( 'NONE',  ( 1.000000000000000000, 0.000000000000000000, 0.000000000000000000 ) ) ;
#252 = LOCAL_TIME ( 11, 44, 47.00000000000000000, #248 ) ;
#253 = CARTESIAN_POINT ( 'NONE',  ( 9.000000000000000000, 1.102182119232617714E-15, 0.000000000000000000 ) ) ;
#254 = CARTESIAN_POINT ( 'NONE',  ( 0.000000000000000000, 0.000000000000000000, 0.000000000000000000 ) ) ;
#255 = PERSON_AND_ORGANIZATION_ROLE ( 'creator' ) ;
#256 = ORIENTED_EDGE ( 'NONE', *, *, #212, .F. ) ;
#257 = AXIS2_PLACEMENT_3D ( 'NONE', #180, #200, #111 ) ;
#258 = ORIENTED_EDGE ( 'NONE', *, *, #80, .F. ) ;
#259 = AXIS2_PLACEMENT_3D ( 'NONE', #141, #202, #299 ) ;
#260 = DIRECTION ( 'NONE',  ( -1.000000000000000000, 0.000000000000000000, 0.000000000000000000 ) ) ;
#261 = EDGE_LOOP ( 'NONE', ( #265, #23 ) ) ;
#262 =( GEOMETRIC_REPRESENTATION_CONTEXT ( 3 ) GLOBAL_UNCERTAINTY_ASSIGNED_CONTEXT ( ( #77 ) ) GLOBAL_UNIT_ASSIGNED_CONTEXT ( ( #42, #18, #273 ) ) REPRESENTATION_CONTEXT ( 'NONE', 'WORKASPACE' ) );
#263 = DIRECTION ( 'NONE',  ( 1.000000000000000000, 0.000000000000000000, 0.000000000000000000 ) ) ;
#264 = CC_DESIGN_DATE_AND_TIME_ASSIGNMENT ( #113, #62, ( #191 ) ) ;
#265 = ORIENTED_EDGE ( 'NONE', *, *, #188, .T. ) ;
#266 = FACE_OUTER_BOUND ( 'NONE', #199, .T. ) ;
#267 = CIRCLE ( 'NONE', #306, 9.000000000000000000 ) ;
#268 = DIRECTION ( 'NONE',  ( 1.000000000000000000, 0.000000000000000000, 0.000000000000000000 ) ) ;
#269 = TOROIDAL_SURFACE ( 'NONE', #203, 6.299999999999998934, 0.2000000000000000111 ) ;
#270 = DIRECTION ( 'NONE',  ( -0.000000000000000000, -0.000000000000000000, -1.000000000000000000 ) ) ;
#271 = COORDINATED_UNIVERSAL_TIME_OFFSET ( 1, 0, .AHEAD. ) ;
#272 = CARTESIAN_POINT ( 'NONE',  ( 0.000000000000000000, 0.000000000000000000, 257.0000000000000000 ) ) ;
#273 =( NAMED_UNIT ( * ) SI_UNIT ( $, .STERADIAN. ) SOLID_ANGLE_UNIT ( ) );
#274 = CARTESIAN_POINT ( 'NONE',  ( -6.099999999999999645, 0.000000000000000000, 257.0000000000000000 ) ) ;
#275 = PERSON_AND_ORGANIZATION ( #29, #131 ) ;
#276 = LINE ( 'NONE', #205, #158 ) ;
#277 = APPROVAL_DATE_TIME ( #186, #41 ) ;
#278 = ORIENTED_EDGE ( 'NONE', *, *, #297, .F. ) ;
#279 = PERSON_AND_ORGANIZATION_ROLE ( 'classification_officer' ) ;
#280 = ORIENTED_EDGE ( 'NONE', *, *, #282, .F. ) ;
#281 = CIRCLE ( 'NONE', #99, 6.099999999999999645 ) ;
#282 = EDGE_CURVE ( 'NONE', #215, #73, #307, .T. ) ;
#283 = EDGE_LOOP ( 'NONE', ( #50, #190 ) ) ;
#284 = AXIS2_PLACEMENT_3D ( 'NONE', #83, #292, #162 ) ;
#285 = VERTEX_POINT ( 'NONE', #253 ) ;
#286 = DIRECTION ( 'NONE',  ( -0.000000000000000000, -0.000000000000000000, -1.000000000000000000 ) ) ;
#287 = CC_DESIGN_PERSON_AND_ORGANIZATION_ASSIGNMENT ( #187, #279, ( #124 ) ) ;
#288 = CARTESIAN_POINT ( 'NONE',  ( -6.099999999999999645, 0.000000000000000000, 7.200000000000011724 ) ) ;
#289 = CC_DESIGN_APPROVAL ( #303, ( #124 ) ) ;
#290 = PLANE ( 'NONE',  #114 ) ;
#291 = ORIENTED_EDGE ( 'NONE', *, *, #159, .F. ) ;
#292 = DIRECTION ( 'NONE',  ( 0.000000000000000000, -1.000000000000000000, 0.000000000000000000 ) ) ;
#293 = EDGE_CURVE ( 'NONE', #45, #215, #302, .T. ) ;
#294 = CARTESIAN_POINT ( 'NONE',  ( 0.000000000000000000, 0.000000000000000000, 7.000000000000000000 ) ) ;
#295 = AXIS2_PLACEMENT_3D ( 'NONE', #121, #286, #74 ) ;
#296 = APPROVAL_ROLE ( '' ) ;
#297 = EDGE_CURVE ( 'NONE', #120, #129, #149, .T. ) ;
#298 = DIRECTION ( 'NONE',  ( 1.000000000000000000, 0.000000000000000000, -0.000000000000000000 ) ) ;
#299 = DIRECTION ( 'NONE',  ( 1.000000000000000000, 0.000000000000000000, 0.000000000000000000 ) ) ;
#300 = APPLICATION_PROTOCOL_DEFINITION ( 'international standard', 'config_control_design', 1994, #170 ) ;
#301 = DIRECTION ( 'NONE',  ( 0.000000000000000000, 0.000000000000000000, 1.000000000000000000 ) ) ;
#302 = CIRCLE ( 'NONE', #189, 6.099999999999999645 ) ;
#303 = APPROVAL ( #107, 'NEURÈENÝ' ) ;
#304 = AXIS2_PLACEMENT_3D ( 'NONE', #142, #247, #81 ) ;
#305 = ORIENTED_EDGE ( 'NONE', *, *, #293, .F. ) ;
#306 = AXIS2_PLACEMENT_3D ( 'NONE', #175, #22, #263 ) ;
#307 = CIRCLE ( 'NONE', #284, 0.1999999999999996503 ) ;
ENDSEC;
END-ISO-10303-21;
