ISO-10303-21;
HEADER;
FILE_DESCRIPTION (( 'STEP AP203' ),
    '1' );
FILE_NAME ('7a2a.STEP',
    '2022-07-07T09:46:55',
    ( '' ),
    ( '' ),
    'SwSTEP 2.0',
    'SolidWorks 2019',
    '' );
FILE_SCHEMA (( 'CONFIG_CONTROL_DESIGN' ));
ENDSEC;

DATA;
#1 = ADVANCED_FACE ( 'NONE', ( #127 ), #138, .F. ) ;
#2 = CARTESIAN_POINT ( 'NONE',  ( -6.200000000000001066, 7.592810154713590821E-16, 7.200000000000011724 ) ) ;
#3 = CARTESIAN_POINT ( 'NONE',  ( -9.000000000000000000, 0.000000000000000000, 7.000000000000000000 ) ) ;
#4 = ORIENTED_EDGE ( 'NONE', *, *, #185, .F. ) ;
#5 = CARTESIAN_POINT ( 'NONE',  ( -9.000000000000000000, 0.000000000000000000, 0.000000000000000000 ) ) ;
#6 = PRODUCT_DEFINITION_SHAPE ( 'NONE', 'NONE',  #307 ) ;
#7 = ORIENTED_EDGE ( 'NONE', *, *, #144, .F. ) ;
#8 = DIRECTION ( 'NONE',  ( -0.000000000000000000, -0.000000000000000000, -1.000000000000000000 ) ) ;
#9 = PLANE ( 'NONE',  #69 ) ;
#10 = CARTESIAN_POINT ( 'NONE',  ( 6.000000000000000888, 7.347880794884120722E-16, 207.0000000000000284 ) ) ;
#11 = ADVANCED_BREP_SHAPE_REPRESENTATION ( '7a2a', ( #217, #100 ), #236 ) ;
#12 = EDGE_CURVE ( 'NONE', #243, #104, #218, .T. ) ;
#13 = COORDINATED_UNIVERSAL_TIME_OFFSET ( 1, 0, .AHEAD. ) ;
#14 = ORIENTED_EDGE ( 'NONE', *, *, #300, .F. ) ;
#15 = CC_DESIGN_APPROVAL ( #251, ( #307 ) ) ;
#16 = DIRECTION ( 'NONE',  ( 0.000000000000000000, 0.000000000000000000, 1.000000000000000000 ) ) ;
#17 = PERSON_AND_ORGANIZATION_ROLE ( 'design_supplier' ) ;
#18 = DIRECTION ( 'NONE',  ( -1.000000000000000000, 0.000000000000000000, 0.000000000000000000 ) ) ;
#19 = FACE_BOUND ( 'NONE', #92, .T. ) ;
#20 = APPROVAL_ROLE ( '' ) ;
#21 = AXIS2_PLACEMENT_3D ( 'NONE', #215, #193, #216 ) ;
#22 = DIRECTION ( 'NONE',  ( 1.000000000000000000, 0.000000000000000000, 0.000000000000000000 ) ) ;
#23 = DIRECTION ( 'NONE',  ( 0.000000000000000000, 0.000000000000000000, 1.000000000000000000 ) ) ;
#24 = DATE_AND_TIME ( #279, #95 ) ;
#25 = VECTOR ( 'NONE', #262, 1000.000000000000000 ) ;
#26 = EDGE_CURVE ( 'NONE', #62, #200, #157, .T. ) ;
#27 = AXIS2_PLACEMENT_3D ( 'NONE', #276, #111, #22 ) ;
#28 = DIRECTION ( 'NONE',  ( 1.000000000000000000, 0.000000000000000000, 0.000000000000000000 ) ) ;
#29 = PRODUCT ( '7a2a', '7a2a', '', ( #87 ) ) ;
#30 = CARTESIAN_POINT ( 'NONE',  ( 0.000000000000000000, 0.000000000000000000, 7.000000000000000000 ) ) ;
#31 = PLANE ( 'NONE',  #158 ) ;
#32 = ORIENTED_EDGE ( 'NONE', *, *, #113, .T. ) ;
#33 = DIRECTION ( 'NONE',  ( 1.000000000000000000, 0.000000000000000000, 0.000000000000000000 ) ) ;
#34 = AXIS2_PLACEMENT_3D ( 'NONE', #201, #63, #228 ) ;
#35 = VERTEX_POINT ( 'NONE', #117 ) ;
#36 = EDGE_CURVE ( 'NONE', #263, #225, #277, .T. ) ;
#37 = ORIENTED_EDGE ( 'NONE', *, *, #220, .T. ) ;
#38 = APPROVAL_DATE_TIME ( #154, #251 ) ;
#39 = CALENDAR_DATE ( 2022, 7, 7 ) ;
#40 = AXIS2_PLACEMENT_3D ( 'NONE', #237, #72, #28 ) ;
#41 = VERTEX_POINT ( 'NONE', #82 ) ;
#42 = CARTESIAN_POINT ( 'NONE',  ( 9.000000000000000000, 1.102182119232617714E-15, 0.000000000000000000 ) ) ;
#43 = CLOSED_SHELL ( 'NONE', ( #273, #285, #282, #47, #51, #137, #97, #159, #1 ) ) ;
#44 = ORGANIZATION ( 'NEURÈENÝ', 'NEURÈENÝ', '' ) ;
#45 = EDGE_LOOP ( 'NONE', ( #153, #293, #155, #294 ) ) ;
#46 = SHAPE_DEFINITION_REPRESENTATION ( #6, #11 ) ;
#47 = ADVANCED_FACE ( 'NONE', ( #105 ), #274, .T. ) ;
#48 = CIRCLE ( 'NONE', #281, 6.000000000000000888 ) ;
#49 = PRODUCT_DEFINITION_FORMATION_WITH_SPECIFIED_SOURCE ( 'LIBOVOLNÝ', '', #29, .NOT_KNOWN. ) ;
#50 = DIRECTION ( 'NONE',  ( 1.000000000000000000, 0.000000000000000000, 0.000000000000000000 ) ) ;
#51 = ADVANCED_FACE ( 'NONE', ( #19, #222 ), #9, .T. ) ;
#52 = ORIENTED_EDGE ( 'NONE', *, *, #220, .F. ) ;
#53 = DIRECTION ( 'NONE',  ( -1.000000000000000000, 1.224646799147353454E-16, 0.000000000000000000 ) ) ;
#54 = PERSON ( 'NEURÈENÝ', 'NEURÈENÝ', 'NEURÈENÝ', ('NEURÈENÝ'), ('NEURÈENÝ'), ('NEURÈENÝ') ) ;
#55 = DIRECTION ( 'NONE',  ( 0.000000000000000000, 0.000000000000000000, 1.000000000000000000 ) ) ;
#56 = CC_DESIGN_PERSON_AND_ORGANIZATION_ASSIGNMENT ( #134, #68, ( #49 ) ) ;
#57 = EDGE_LOOP ( 'NONE', ( #7, #146, #219, #60 ) ) ;
#58 = DIRECTION ( 'NONE',  ( 0.000000000000000000, 0.000000000000000000, 1.000000000000000000 ) ) ;
#59 =( LENGTH_UNIT ( ) NAMED_UNIT ( * ) SI_UNIT ( .MILLI., .METRE. ) );
#60 = ORIENTED_EDGE ( 'NONE', *, *, #255, .T. ) ;
#61 = APPROVAL_ROLE ( '' ) ;
#62 = VERTEX_POINT ( 'NONE', #42 ) ;
#63 = DIRECTION ( 'NONE',  ( -0.000000000000000000, -0.000000000000000000, -1.000000000000000000 ) ) ;
#64 = EDGE_LOOP ( 'NONE', ( #166, #84, #191, #80 ) ) ;
#65 = EDGE_LOOP ( 'NONE', ( #267, #247, #290, #52 ) ) ;
#66 = DATE_AND_TIME ( #257, #125 ) ;
#67 = TOROIDAL_SURFACE ( 'NONE', #40, 6.200000000000001066, 0.2000000000000000111 ) ;
#68 = PERSON_AND_ORGANIZATION_ROLE ( 'creator' ) ;
#69 = AXIS2_PLACEMENT_3D ( 'NONE', #149, #103, #79 ) ;
#70 = AXIS2_PLACEMENT_3D ( 'NONE', #172, #223, #194 ) ;
#71 = CARTESIAN_POINT ( 'NONE',  ( -6.200000000000001066, 7.592810154713590821E-16, 7.000000000000006217 ) ) ;
#72 = DIRECTION ( 'NONE',  ( 0.000000000000000000, 0.000000000000000000, 1.000000000000000000 ) ) ;
#73 = AXIS2_PLACEMENT_3D ( 'NONE', #120, #214, #18 ) ;
#74 = DIRECTION ( 'NONE',  ( 0.000000000000000000, 0.000000000000000000, 1.000000000000000000 ) ) ;
#75 = FACE_OUTER_BOUND ( 'NONE', #256, .T. ) ;
#76 = CC_DESIGN_DATE_AND_TIME_ASSIGNMENT ( #198, #296, ( #307 ) ) ;
#77 = ORIENTED_EDGE ( 'NONE', *, *, #91, .F. ) ;
#78 = DIRECTION ( 'NONE',  ( 1.224646799147353207E-16, 1.000000000000000000, -0.000000000000000000 ) ) ;
#79 = DIRECTION ( 'NONE',  ( 1.000000000000000000, 0.000000000000000000, -0.000000000000000000 ) ) ;
#80 = ORIENTED_EDGE ( 'NONE', *, *, #235, .F. ) ;
#81 = SECURITY_CLASSIFICATION ( '', '', #208 ) ;
#82 = CARTESIAN_POINT ( 'NONE',  ( -6.000000000000000888, 0.000000000000000000, 207.0000000000000284 ) ) ;
#83 = PERSON_AND_ORGANIZATION ( #54, #44 ) ;
#84 = ORIENTED_EDGE ( 'NONE', *, *, #12, .F. ) ;
#85 = DIRECTION ( 'NONE',  ( 0.000000000000000000, 0.000000000000000000, -1.000000000000000000 ) ) ;
#86 = CC_DESIGN_PERSON_AND_ORGANIZATION_ASSIGNMENT ( #94, #184, ( #81 ) ) ;
#87 = MECHANICAL_CONTEXT ( 'NONE', #173, 'mechanical' ) ;
#88 = APPROVAL_PERSON_ORGANIZATION ( #131, #251, #301 ) ;
#89 = CALENDAR_DATE ( 2022, 7, 7 ) ;
#90 = DIRECTION ( 'NONE',  ( -0.000000000000000000, -0.000000000000000000, -1.000000000000000000 ) ) ;
#91 = EDGE_CURVE ( 'NONE', #107, #243, #168, .T. ) ;
#92 = EDGE_LOOP ( 'NONE', ( #171, #175 ) ) ;
#93 = APPROVAL_STATUS ( 'not_yet_approved' ) ;
#94 = PERSON_AND_ORGANIZATION ( #54, #44 ) ;
#95 = LOCAL_TIME ( 11, 46, 55.00000000000000000, #275 ) ;
#96 = CC_DESIGN_APPROVAL ( #140, ( #81 ) ) ;
#97 = ADVANCED_FACE ( 'NONE', ( #197 ), #304, .T. ) ;
#98 = DIRECTION ( 'NONE',  ( -0.000000000000000000, -0.000000000000000000, -1.000000000000000000 ) ) ;
#99 = CARTESIAN_POINT ( 'NONE',  ( 0.000000000000000000, 0.000000000000000000, 207.0000000000000284 ) ) ;
#100 = AXIS2_PLACEMENT_3D ( 'NONE', #109, #16, #299 ) ;
#101 = CARTESIAN_POINT ( 'NONE',  ( 0.000000000000000000, 0.000000000000000000, 0.000000000000000000 ) ) ;
#102 = CARTESIAN_POINT ( 'NONE',  ( 6.000000000000000888, 7.347880794884120722E-16, 7.200000000000011724 ) ) ;
#103 = DIRECTION ( 'NONE',  ( 0.000000000000000000, 0.000000000000000000, 1.000000000000000000 ) ) ;
#104 = VERTEX_POINT ( 'NONE', #115 ) ;
#105 = FACE_OUTER_BOUND ( 'NONE', #57, .T. ) ;
#106 = CALENDAR_DATE ( 2022, 7, 7 ) ;
#107 = VERTEX_POINT ( 'NONE', #206 ) ;
#108 =( NAMED_UNIT ( * ) SI_UNIT ( $, .STERADIAN. ) SOLID_ANGLE_UNIT ( ) );
#109 = CARTESIAN_POINT ( 'NONE',  ( 0.000000000000000000, 0.000000000000000000, 0.000000000000000000 ) ) ;
#110 = COORDINATED_UNIVERSAL_TIME_OFFSET ( 1, 0, .AHEAD. ) ;
#111 = DIRECTION ( 'NONE',  ( 0.000000000000000000, 0.000000000000000000, 1.000000000000000000 ) ) ;
#112 = LOCAL_TIME ( 11, 46, 55.00000000000000000, #151 ) ;
#113 = EDGE_CURVE ( 'NONE', #41, #107, #183, .T. ) ;
#114 = PERSON_AND_ORGANIZATION ( #54, #44 ) ;
#115 = CARTESIAN_POINT ( 'NONE',  ( -6.000000000000000888, 0.000000000000000000, 7.200000000000011724 ) ) ;
#116 = DATE_TIME_ROLE ( 'classification_date' ) ;
#117 = CARTESIAN_POINT ( 'NONE',  ( 6.200000000000001066, 0.000000000000000000, 7.000000000000006217 ) ) ;
#118 = CIRCLE ( 'NONE', #287, 9.000000000000000000 ) ;
#119 = AXIS2_PLACEMENT_3D ( 'NONE', #260, #143, #50 ) ;
#120 = CARTESIAN_POINT ( 'NONE',  ( 0.000000000000000000, 0.000000000000000000, 7.000000000000000000 ) ) ;
#121 = DIRECTION ( 'NONE',  ( 1.000000000000000000, 0.000000000000000000, 0.000000000000000000 ) ) ;
#122 = EDGE_CURVE ( 'NONE', #225, #263, #118, .T. ) ;
#123 = DIRECTION ( 'NONE',  ( 0.000000000000000000, 0.000000000000000000, 1.000000000000000000 ) ) ;
#124 = UNCERTAINTY_MEASURE_WITH_UNIT (LENGTH_MEASURE( 1.000000000000000082E-05 ), #59, 'distance_accuracy_value', 'NONE');
#125 = LOCAL_TIME ( 11, 46, 55.00000000000000000, #156 ) ;
#126 = CARTESIAN_POINT ( 'NONE',  ( 9.000000000000000000, 1.102182119232617714E-15, 7.000000000000000000 ) ) ;
#127 = FACE_OUTER_BOUND ( 'NONE', #64, .T. ) ;
#128 = PERSON_AND_ORGANIZATION ( #54, #44 ) ;
#129 = DATE_AND_TIME ( #39, #112 ) ;
#130 = PERSON_AND_ORGANIZATION ( #54, #44 ) ;
#131 = PERSON_AND_ORGANIZATION ( #54, #44 ) ;
#132 = CARTESIAN_POINT ( 'NONE',  ( 0.000000000000000000, 0.000000000000000000, 7.200000000000011724 ) ) ;
#133 = APPROVAL ( #174, 'NEURÈENÝ' ) ;
#134 = PERSON_AND_ORGANIZATION ( #54, #44 ) ;
#135 = EDGE_LOOP ( 'NONE', ( #148, #268 ) ) ;
#136 = DIRECTION ( 'NONE',  ( 0.000000000000000000, 0.000000000000000000, 1.000000000000000000 ) ) ;
#137 = ADVANCED_FACE ( 'NONE', ( #75 ), #31, .F. ) ;
#138 = TOROIDAL_SURFACE ( 'NONE', #212, 6.200000000000001066, 0.2000000000000000111 ) ;
#139 = AXIS2_PLACEMENT_3D ( 'NONE', #291, #187, #264 ) ;
#140 = APPROVAL ( #93, 'NEURÈENÝ' ) ;
#141 = FACE_OUTER_BOUND ( 'NONE', #45, .T. ) ;
#142 = AXIS2_PLACEMENT_3D ( 'NONE', #2, #78, #53 ) ;
#143 = DIRECTION ( 'NONE',  ( 0.000000000000000000, 0.000000000000000000, 1.000000000000000000 ) ) ;
#144 = EDGE_CURVE ( 'NONE', #225, #62, #286, .T. ) ;
#145 = DIRECTION ( 'NONE',  ( 1.000000000000000000, 0.000000000000000000, -0.000000000000000000 ) ) ;
#146 = ORIENTED_EDGE ( 'NONE', *, *, #36, .F. ) ;
#147 = PLANE ( 'NONE',  #152 ) ;
#148 = ORIENTED_EDGE ( 'NONE', *, *, #36, .T. ) ;
#149 = CARTESIAN_POINT ( 'NONE',  ( 0.000000000000000000, 0.000000000000000000, 7.000000000000000000 ) ) ;
#150 = CC_DESIGN_DATE_AND_TIME_ASSIGNMENT ( #24, #116, ( #81 ) ) ;
#151 = COORDINATED_UNIVERSAL_TIME_OFFSET ( 1, 0, .AHEAD. ) ;
#152 = AXIS2_PLACEMENT_3D ( 'NONE', #99, #161, #145 ) ;
#153 = ORIENTED_EDGE ( 'NONE', *, *, #122, .F. ) ;
#154 = DATE_AND_TIME ( #89, #205 ) ;
#155 = ORIENTED_EDGE ( 'NONE', *, *, #26, .T. ) ;
#156 = COORDINATED_UNIVERSAL_TIME_OFFSET ( 1, 0, .AHEAD. ) ;
#157 = CIRCLE ( 'NONE', #199, 9.000000000000000000 ) ;
#158 = AXIS2_PLACEMENT_3D ( 'NONE', #101, #55, #189 ) ;
#159 = ADVANCED_FACE ( 'NONE', ( #192 ), #147, .T. ) ;
#160 = CARTESIAN_POINT ( 'NONE',  ( -9.000000000000000000, 0.000000000000000000, 7.000000000000000000 ) ) ;
#161 = DIRECTION ( 'NONE',  ( 0.000000000000000000, 0.000000000000000000, 1.000000000000000000 ) ) ;
#162 = AXIS2_PLACEMENT_3D ( 'NONE', #182, #283, #241 ) ;
#163 = LINE ( 'NONE', #3, #211 ) ;
#164 = EDGE_LOOP ( 'NONE', ( #4, #271, #248, #14 ) ) ;
#165 = CARTESIAN_POINT ( 'NONE',  ( -6.000000000000000888, 0.000000000000000000, 207.0000000000000284 ) ) ;
#166 = ORIENTED_EDGE ( 'NONE', *, *, #176, .F. ) ;
#167 = DIRECTION ( 'NONE',  ( 1.000000000000000000, 0.000000000000000000, 0.000000000000000000 ) ) ;
#168 = LINE ( 'NONE', #10, #186 ) ;
#169 = APPROVAL_STATUS ( 'not_yet_approved' ) ;
#170 = CC_DESIGN_PERSON_AND_ORGANIZATION_ASSIGNMENT ( #128, #224, ( #307 ) ) ;
#171 = ORIENTED_EDGE ( 'NONE', *, *, #209, .T. ) ;
#172 = CARTESIAN_POINT ( 'NONE',  ( 0.000000000000000000, 0.000000000000000000, 7.000000000000000000 ) ) ;
#173 = APPLICATION_CONTEXT ( 'configuration controlled 3d designs of mechanical parts and assemblies' ) ;
#174 = APPROVAL_STATUS ( 'not_yet_approved' ) ;
#175 = ORIENTED_EDGE ( 'NONE', *, *, #235, .T. ) ;
#176 = EDGE_CURVE ( 'NONE', #104, #196, #302, .T. ) ;
#177 = FACE_OUTER_BOUND ( 'NONE', #65, .T. ) ;
#178 = CIRCLE ( 'NONE', #139, 9.000000000000000000 ) ;
#179 =( NAMED_UNIT ( * ) PLANE_ANGLE_UNIT ( ) SI_UNIT ( $, .RADIAN. ) );
#180 = DIRECTION ( 'NONE',  ( -1.000000000000000000, 0.000000000000000000, 0.000000000000000000 ) ) ;
#181 = APPLICATION_CONTEXT ( 'configuration controlled 3d designs of mechanical parts and assemblies' ) ;
#182 = CARTESIAN_POINT ( 'NONE',  ( 0.000000000000000000, 0.000000000000000000, 207.0000000000000284 ) ) ;
#183 = CIRCLE ( 'NONE', #162, 6.000000000000000888 ) ;
#184 = PERSON_AND_ORGANIZATION_ROLE ( 'classification_officer' ) ;
#185 = EDGE_CURVE ( 'NONE', #104, #243, #230, .T. ) ;
#186 = VECTOR ( 'NONE', #265, 1000.000000000000000 ) ;
#187 = DIRECTION ( 'NONE',  ( 0.000000000000000000, 0.000000000000000000, 1.000000000000000000 ) ) ;
#188 = CC_DESIGN_PERSON_AND_ORGANIZATION_ASSIGNMENT ( #114, #17, ( #49 ) ) ;
#189 = DIRECTION ( 'NONE',  ( 1.000000000000000000, 0.000000000000000000, -0.000000000000000000 ) ) ;
#190 = VECTOR ( 'NONE', #98, 1000.000000000000000 ) ;
#191 = ORIENTED_EDGE ( 'NONE', *, *, #300, .T. ) ;
#192 = FACE_OUTER_BOUND ( 'NONE', #253, .T. ) ;
#193 = DIRECTION ( 'NONE',  ( -0.000000000000000000, -0.000000000000000000, -1.000000000000000000 ) ) ;
#194 = DIRECTION ( 'NONE',  ( -1.000000000000000000, 0.000000000000000000, 0.000000000000000000 ) ) ;
#195 = EDGE_CURVE ( 'NONE', #107, #41, #48, .T. ) ;
#196 = VERTEX_POINT ( 'NONE', #71 ) ;
#197 = FACE_OUTER_BOUND ( 'NONE', #297, .T. ) ;
#198 = DATE_AND_TIME ( #106, #258 ) ;
#199 = AXIS2_PLACEMENT_3D ( 'NONE', #229, #23, #254 ) ;
#200 = VERTEX_POINT ( 'NONE', #5 ) ;
#201 = CARTESIAN_POINT ( 'NONE',  ( 0.000000000000000000, 0.000000000000000000, 207.0000000000000284 ) ) ;
#202 = EDGE_CURVE ( 'NONE', #263, #200, #163, .T. ) ;
#203 = PERSON_AND_ORGANIZATION_ROLE ( 'design_owner' ) ;
#204 = CARTESIAN_POINT ( 'NONE',  ( 0.000000000000000000, 0.000000000000000000, 207.0000000000000284 ) ) ;
#205 = LOCAL_TIME ( 11, 46, 55.00000000000000000, #110 ) ;
#206 = CARTESIAN_POINT ( 'NONE',  ( 6.000000000000000888, 7.347880794884120722E-16, 207.0000000000000284 ) ) ;
#207 = DESIGN_CONTEXT ( 'detailed design', #181, 'design' ) ;
#208 = SECURITY_CLASSIFICATION_LEVEL ( 'unclassified' ) ;
#209 = EDGE_CURVE ( 'NONE', #35, #196, #270, .T. ) ;
#210 = DIRECTION ( 'NONE',  ( 1.000000000000000000, 0.000000000000000000, 0.000000000000000000 ) ) ;
#211 = VECTOR ( 'NONE', #244, 1000.000000000000000 ) ;
#212 = AXIS2_PLACEMENT_3D ( 'NONE', #132, #136, #234 ) ;
#213 = APPROVAL_PERSON_ORGANIZATION ( #233, #140, #20 ) ;
#214 = DIRECTION ( 'NONE',  ( -0.000000000000000000, -0.000000000000000000, -1.000000000000000000 ) ) ;
#215 = CARTESIAN_POINT ( 'NONE',  ( 0.000000000000000000, 0.000000000000000000, 7.000000000000000000 ) ) ;
#216 = DIRECTION ( 'NONE',  ( 1.000000000000000000, 0.000000000000000000, 0.000000000000000000 ) ) ;
#217 = MANIFOLD_SOLID_BREP ( 'Zaoblit1', #43 ) ;
#218 = CIRCLE ( 'NONE', #27, 6.000000000000000888 ) ;
#219 = ORIENTED_EDGE ( 'NONE', *, *, #202, .T. ) ;
#220 = EDGE_CURVE ( 'NONE', #41, #104, #289, .T. ) ;
#221 = CARTESIAN_POINT ( 'NONE',  ( 0.000000000000000000, 0.000000000000000000, 7.000000000000000000 ) ) ;
#222 = FACE_OUTER_BOUND ( 'NONE', #135, .T. ) ;
#223 = DIRECTION ( 'NONE',  ( -0.000000000000000000, -0.000000000000000000, -1.000000000000000000 ) ) ;
#224 = PERSON_AND_ORGANIZATION_ROLE ( 'creator' ) ;
#225 = VERTEX_POINT ( 'NONE', #126 ) ;
#226 = APPROVAL_DATE_TIME ( #129, #133 ) ;
#227 = CC_DESIGN_APPROVAL ( #133, ( #49 ) ) ;
#228 = DIRECTION ( 'NONE',  ( -1.000000000000000000, 0.000000000000000000, 0.000000000000000000 ) ) ;
#229 = CARTESIAN_POINT ( 'NONE',  ( 0.000000000000000000, 0.000000000000000000, 0.000000000000000000 ) ) ;
#230 = CIRCLE ( 'NONE', #119, 6.000000000000000888 ) ;
#231 = ORIENTED_EDGE ( 'NONE', *, *, #255, .F. ) ;
#232 = PRODUCT_RELATED_PRODUCT_CATEGORY ( 'detail', '', ( #29 ) ) ;
#233 = PERSON_AND_ORGANIZATION ( #54, #44 ) ;
#234 = DIRECTION ( 'NONE',  ( 1.000000000000000000, 0.000000000000000000, 0.000000000000000000 ) ) ;
#235 = EDGE_CURVE ( 'NONE', #196, #35, #278, .T. ) ;
#236 =( GEOMETRIC_REPRESENTATION_CONTEXT ( 3 ) GLOBAL_UNCERTAINTY_ASSIGNED_CONTEXT ( ( #124 ) ) GLOBAL_UNIT_ASSIGNED_CONTEXT ( ( #59, #179, #108 ) ) REPRESENTATION_CONTEXT ( 'NONE', 'WORKASPACE' ) );
#237 = CARTESIAN_POINT ( 'NONE',  ( 0.000000000000000000, 0.000000000000000000, 7.200000000000011724 ) ) ;
#238 = AXIS2_PLACEMENT_3D ( 'NONE', #249, #266, #85 ) ;
#239 = CARTESIAN_POINT ( 'NONE',  ( 0.000000000000000000, 0.000000000000000000, 207.0000000000000284 ) ) ;
#240 = ORIENTED_EDGE ( 'NONE', *, *, #185, .T. ) ;
#241 = DIRECTION ( 'NONE',  ( 1.000000000000000000, 0.000000000000000000, 0.000000000000000000 ) ) ;
#242 = CC_DESIGN_PERSON_AND_ORGANIZATION_ASSIGNMENT ( #130, #203, ( #29 ) ) ;
#243 = VERTEX_POINT ( 'NONE', #102 ) ;
#244 = DIRECTION ( 'NONE',  ( -0.000000000000000000, -0.000000000000000000, -1.000000000000000000 ) ) ;
#245 = AXIS2_PLACEMENT_3D ( 'NONE', #292, #58, #210 ) ;
#246 = APPROVAL_PERSON_ORGANIZATION ( #83, #133, #61 ) ;
#247 = ORIENTED_EDGE ( 'NONE', *, *, #91, .T. ) ;
#248 = ORIENTED_EDGE ( 'NONE', *, *, #209, .F. ) ;
#249 = CARTESIAN_POINT ( 'NONE',  ( 6.200000000000001066, 0.000000000000000000, 7.200000000000011724 ) ) ;
#250 = ORIENTED_EDGE ( 'NONE', *, *, #26, .F. ) ;
#251 = APPROVAL ( #169, 'NEURÈENÝ' ) ;
#252 = AXIS2_PLACEMENT_3D ( 'NONE', #204, #90, #180 ) ;
#253 = EDGE_LOOP ( 'NONE', ( #32, #303 ) ) ;
#254 = DIRECTION ( 'NONE',  ( 1.000000000000000000, 0.000000000000000000, 0.000000000000000000 ) ) ;
#255 = EDGE_CURVE ( 'NONE', #200, #62, #178, .T. ) ;
#256 = EDGE_LOOP ( 'NONE', ( #231, #250 ) ) ;
#257 = CALENDAR_DATE ( 2022, 7, 7 ) ;
#258 = LOCAL_TIME ( 11, 46, 55.00000000000000000, #13 ) ;
#259 = FACE_OUTER_BOUND ( 'NONE', #164, .T. ) ;
#260 = CARTESIAN_POINT ( 'NONE',  ( 0.000000000000000000, 0.000000000000000000, 7.200000000000011724 ) ) ;
#261 = CARTESIAN_POINT ( 'NONE',  ( 9.000000000000000000, 1.102182119232617714E-15, 7.000000000000000000 ) ) ;
#262 = DIRECTION ( 'NONE',  ( -0.000000000000000000, -0.000000000000000000, -1.000000000000000000 ) ) ;
#263 = VERTEX_POINT ( 'NONE', #160 ) ;
#264 = DIRECTION ( 'NONE',  ( 1.000000000000000000, 0.000000000000000000, 0.000000000000000000 ) ) ;
#265 = DIRECTION ( 'NONE',  ( -0.000000000000000000, -0.000000000000000000, -1.000000000000000000 ) ) ;
#266 = DIRECTION ( 'NONE',  ( 0.000000000000000000, -1.000000000000000000, 0.000000000000000000 ) ) ;
#267 = ORIENTED_EDGE ( 'NONE', *, *, #195, .F. ) ;
#268 = ORIENTED_EDGE ( 'NONE', *, *, #122, .T. ) ;
#269 = APPLICATION_PROTOCOL_DEFINITION ( 'international standard', 'config_control_design', 1994, #181 ) ;
#270 = CIRCLE ( 'NONE', #21, 6.200000000000001066 ) ;
#271 = ORIENTED_EDGE ( 'NONE', *, *, #176, .T. ) ;
#272 = APPLICATION_PROTOCOL_DEFINITION ( 'international standard', 'config_control_design', 1994, #173 ) ;
#273 = ADVANCED_FACE ( 'NONE', ( #259 ), #67, .F. ) ;
#274 = CYLINDRICAL_SURFACE ( 'NONE', #70, 9.000000000000000000 ) ;
#275 = COORDINATED_UNIVERSAL_TIME_OFFSET ( 1, 0, .AHEAD. ) ;
#276 = CARTESIAN_POINT ( 'NONE',  ( 0.000000000000000000, 0.000000000000000000, 7.200000000000011724 ) ) ;
#277 = CIRCLE ( 'NONE', #245, 9.000000000000000000 ) ;
#278 = CIRCLE ( 'NONE', #295, 6.200000000000001066 ) ;
#279 = CALENDAR_DATE ( 2022, 7, 7 ) ;
#280 = CC_DESIGN_SECURITY_CLASSIFICATION ( #81, ( #49 ) ) ;
#281 = AXIS2_PLACEMENT_3D ( 'NONE', #239, #123, #121 ) ;
#282 = ADVANCED_FACE ( 'NONE', ( #141 ), #284, .T. ) ;
#283 = DIRECTION ( 'NONE',  ( 0.000000000000000000, 0.000000000000000000, 1.000000000000000000 ) ) ;
#284 = CYLINDRICAL_SURFACE ( 'NONE', #73, 9.000000000000000000 ) ;
#285 = ADVANCED_FACE ( 'NONE', ( #177 ), #298, .T. ) ;
#286 = LINE ( 'NONE', #261, #190 ) ;
#287 = AXIS2_PLACEMENT_3D ( 'NONE', #30, #74, #33 ) ;
#288 = ORIENTED_EDGE ( 'NONE', *, *, #113, .F. ) ;
#289 = LINE ( 'NONE', #165, #25 ) ;
#290 = ORIENTED_EDGE ( 'NONE', *, *, #12, .T. ) ;
#291 = CARTESIAN_POINT ( 'NONE',  ( 0.000000000000000000, 0.000000000000000000, 0.000000000000000000 ) ) ;
#292 = CARTESIAN_POINT ( 'NONE',  ( 0.000000000000000000, 0.000000000000000000, 7.000000000000000000 ) ) ;
#293 = ORIENTED_EDGE ( 'NONE', *, *, #144, .T. ) ;
#294 = ORIENTED_EDGE ( 'NONE', *, *, #202, .F. ) ;
#295 = AXIS2_PLACEMENT_3D ( 'NONE', #221, #8, #167 ) ;
#296 = DATE_TIME_ROLE ( 'creation_date' ) ;
#297 = EDGE_LOOP ( 'NONE', ( #77, #288, #37, #240 ) ) ;
#298 = CYLINDRICAL_SURFACE ( 'NONE', #34, 6.000000000000000888 ) ;
#299 = DIRECTION ( 'NONE',  ( 1.000000000000000000, 0.000000000000000000, 0.000000000000000000 ) ) ;
#300 = EDGE_CURVE ( 'NONE', #243, #35, #306, .T. ) ;
#301 = APPROVAL_ROLE ( '' ) ;
#302 = CIRCLE ( 'NONE', #142, 0.1999999999999996503 ) ;
#303 = ORIENTED_EDGE ( 'NONE', *, *, #195, .T. ) ;
#304 = CYLINDRICAL_SURFACE ( 'NONE', #252, 6.000000000000000888 ) ;
#305 = APPROVAL_DATE_TIME ( #66, #140 ) ;
#306 = CIRCLE ( 'NONE', #238, 0.1999999999999996503 ) ;
#307 = PRODUCT_DEFINITION ( 'NEZNÁMÝ', '', #49, #207 ) ;
ENDSEC;
END-ISO-10303-21;
