ISO-10303-21;
HEADER;
FILE_DESCRIPTION (( 'STEP AP203' ),
    '1' );
FILE_NAME ('3c45.STEP',
    '2022-07-07T09:29:20',
    ( '' ),
    ( '' ),
    'SwSTEP 2.0',
    'SolidWorks 2019',
    '' );
FILE_SCHEMA (( 'CONFIG_CONTROL_DESIGN' ));
ENDSEC;

DATA;
#1 = APPROVAL ( #271, 'NEURÈENÝ' ) ;
#2 = CARTESIAN_POINT ( 'NONE',  ( 0.000000000000000000, 0.000000000000000000, 0.000000000000000000 ) ) ;
#3 = LINE ( 'NONE', #65, #274 ) ;
#4 = CIRCLE ( 'NONE', #173, 16.00000000000000000 ) ;
#5 = DIRECTION ( 'NONE',  ( 0.000000000000000000, 0.000000000000000000, 1.000000000000000000 ) ) ;
#6 = FACE_OUTER_BOUND ( 'NONE', #157, .T. ) ;
#7 = PERSON ( 'NEURÈENÝ', 'NEURÈENÝ', 'NEURÈENÝ', ('NEURÈENÝ'), ('NEURÈENÝ'), ('NEURÈENÝ') ) ;
#8 = LOCAL_TIME ( 11, 29, 20.00000000000000000, #156 ) ;
#9 = DIRECTION ( 'NONE',  ( 0.000000000000000000, 0.000000000000000000, 1.000000000000000000 ) ) ;
#10 = PRODUCT_RELATED_PRODUCT_CATEGORY ( 'detail', '', ( #298 ) ) ;
#11 = COORDINATED_UNIVERSAL_TIME_OFFSET ( 1, 0, .AHEAD. ) ;
#12 = CARTESIAN_POINT ( 'NONE',  ( 16.00000000000000000, 1.959434878635765131E-15, 410.0000000000000568 ) ) ;
#13 = EDGE_LOOP ( 'NONE', ( #105, #63 ) ) ;
#14 = PERSON_AND_ORGANIZATION ( #7, #289 ) ;
#15 = ORIENTED_EDGE ( 'NONE', *, *, #190, .F. ) ;
#16 = PERSON_AND_ORGANIZATION ( #7, #289 ) ;
#17 = ORIENTED_EDGE ( 'NONE', *, *, #49, .T. ) ;
#18 = PLANE ( 'NONE',  #268 ) ;
#19 = CC_DESIGN_PERSON_AND_ORGANIZATION_ASSIGNMENT ( #149, #176, ( #236 ) ) ;
#20 = DIRECTION ( 'NONE',  ( 1.000000000000000000, 0.000000000000000000, 0.000000000000000000 ) ) ;
#21 = DIRECTION ( 'NONE',  ( -0.000000000000000000, -0.000000000000000000, -1.000000000000000000 ) ) ;
#22 = DIRECTION ( 'NONE',  ( 1.224646799147353207E-16, 1.000000000000000000, -0.000000000000000000 ) ) ;
#23 = AXIS2_PLACEMENT_3D ( 'NONE', #2, #261, #64 ) ;
#24 = EDGE_CURVE ( 'NONE', #204, #202, #53, .T. ) ;
#25 = DIRECTION ( 'NONE',  ( -0.000000000000000000, -0.000000000000000000, -1.000000000000000000 ) ) ;
#26 = DIRECTION ( 'NONE',  ( 0.000000000000000000, 0.000000000000000000, -1.000000000000000000 ) ) ;
#27 = CARTESIAN_POINT ( 'NONE',  ( -16.19999999999999929, 1.983927814618711846E-15, 10.19999999999998685 ) ) ;
#28 = DIRECTION ( 'NONE',  ( 0.000000000000000000, 0.000000000000000000, 1.000000000000000000 ) ) ;
#29 = LINE ( 'NONE', #12, #39 ) ;
#30 = DIRECTION ( 'NONE',  ( 1.000000000000000000, 0.000000000000000000, 0.000000000000000000 ) ) ;
#31 = ORIENTED_EDGE ( 'NONE', *, *, #24, .F. ) ;
#32 = EDGE_LOOP ( 'NONE', ( #245, #125 ) ) ;
#33 = CC_DESIGN_PERSON_AND_ORGANIZATION_ASSIGNMENT ( #14, #151, ( #95 ) ) ;
#34 = CIRCLE ( 'NONE', #219, 0.2000000000000005107 ) ;
#35 = DATE_TIME_ROLE ( 'classification_date' ) ;
#36 = VERTEX_POINT ( 'NONE', #230 ) ;
#37 = DATE_AND_TIME ( #200, #137 ) ;
#38 = DIRECTION ( 'NONE',  ( -0.000000000000000000, -0.000000000000000000, -1.000000000000000000 ) ) ;
#39 = VECTOR ( 'NONE', #47, 1000.000000000000000 ) ;
#40 = DIRECTION ( 'NONE',  ( -0.000000000000000000, -0.000000000000000000, -1.000000000000000000 ) ) ;
#41 = DIRECTION ( 'NONE',  ( 0.000000000000000000, 0.000000000000000000, 1.000000000000000000 ) ) ;
#42 = DIRECTION ( 'NONE',  ( 1.000000000000000000, 0.000000000000000000, 0.000000000000000000 ) ) ;
#43 = CIRCLE ( 'NONE', #23, 20.00000000000000000 ) ;
#44 = CYLINDRICAL_SURFACE ( 'NONE', #67, 20.00000000000000000 ) ;
#45 = MANIFOLD_SOLID_BREP ( 'Zaoblit1', #292 ) ;
#46 = DIRECTION ( 'NONE',  ( 1.000000000000000000, 0.000000000000000000, 0.000000000000000000 ) ) ;
#47 = DIRECTION ( 'NONE',  ( -0.000000000000000000, -0.000000000000000000, -1.000000000000000000 ) ) ;
#48 = AXIS2_PLACEMENT_3D ( 'NONE', #143, #9, #295 ) ;
#49 = EDGE_CURVE ( 'NONE', #300, #259, #255, .T. ) ;
#50 = CARTESIAN_POINT ( 'NONE',  ( 0.000000000000000000, 0.000000000000000000, 10.00000000000000000 ) ) ;
#51 = CC_DESIGN_DATE_AND_TIME_ASSIGNMENT ( #104, #35, ( #95 ) ) ;
#52 = DIRECTION ( 'NONE',  ( 1.000000000000000000, 0.000000000000000000, -0.000000000000000000 ) ) ;
#53 = CIRCLE ( 'NONE', #71, 16.19999999999999929 ) ;
#54 = VERTEX_POINT ( 'NONE', #126 ) ;
#55 = ORIENTED_EDGE ( 'NONE', *, *, #80, .F. ) ;
#56 = CIRCLE ( 'NONE', #287, 16.00000000000000000 ) ;
#57 = CC_DESIGN_APPROVAL ( #145, ( #236 ) ) ;
#58 = PRODUCT_DEFINITION_SHAPE ( 'NONE', 'NONE',  #249 ) ;
#59 = COORDINATED_UNIVERSAL_TIME_OFFSET ( 1, 0, .AHEAD. ) ;
#60 = ORIENTED_EDGE ( 'NONE', *, *, #209, .T. ) ;
#61 = ORIENTED_EDGE ( 'NONE', *, *, #92, .T. ) ;
#62 = ORIENTED_EDGE ( 'NONE', *, *, #199, .T. ) ;
#63 = ORIENTED_EDGE ( 'NONE', *, *, #150, .F. ) ;
#64 = DIRECTION ( 'NONE',  ( 1.000000000000000000, 0.000000000000000000, 0.000000000000000000 ) ) ;
#65 = CARTESIAN_POINT ( 'NONE',  ( -16.00000000000000000, 0.000000000000000000, 410.0000000000000568 ) ) ;
#66 = ADVANCED_FACE ( 'NONE', ( #108 ), #228, .T. ) ;
#67 = AXIS2_PLACEMENT_3D ( 'NONE', #68, #25, #238 ) ;
#68 = CARTESIAN_POINT ( 'NONE',  ( 0.000000000000000000, 0.000000000000000000, 10.00000000000000000 ) ) ;
#69 = CARTESIAN_POINT ( 'NONE',  ( 0.000000000000000000, 0.000000000000000000, 410.0000000000000568 ) ) ;
#70 = CIRCLE ( 'NONE', #248, 16.00000000000000000 ) ;
#71 = AXIS2_PLACEMENT_3D ( 'NONE', #99, #76, #20 ) ;
#72 = PERSON_AND_ORGANIZATION_ROLE ( 'design_owner' ) ;
#73 = CC_DESIGN_PERSON_AND_ORGANIZATION_ASSIGNMENT ( #241, #119, ( #249 ) ) ;
#74 = CALENDAR_DATE ( 2022, 7, 7 ) ;
#75 = CARTESIAN_POINT ( 'NONE',  ( 20.00000000000000000, 2.449293598294706513E-15, 10.00000000000000000 ) ) ;
#76 = DIRECTION ( 'NONE',  ( -0.000000000000000000, -0.000000000000000000, -1.000000000000000000 ) ) ;
#77 = CC_DESIGN_APPROVAL ( #275, ( #249 ) ) ;
#78 = APPLICATION_PROTOCOL_DEFINITION ( 'international standard', 'config_control_design', 1994, #251 ) ;
#79 = VERTEX_POINT ( 'NONE', #162 ) ;
#80 = EDGE_CURVE ( 'NONE', #79, #280, #70, .T. ) ;
#81 = ORIENTED_EDGE ( 'NONE', *, *, #286, .F. ) ;
#82 = ORIENTED_EDGE ( 'NONE', *, *, #161, .T. ) ;
#83 = EDGE_LOOP ( 'NONE', ( #81, #148, #82, #247 ) ) ;
#84 = ADVANCED_FACE ( 'NONE', ( #134 ), #18, .T. ) ;
#85 = CARTESIAN_POINT ( 'NONE',  ( -20.00000000000000000, 0.000000000000000000, 10.00000000000000000 ) ) ;
#86 =( GEOMETRIC_REPRESENTATION_CONTEXT ( 3 ) GLOBAL_UNCERTAINTY_ASSIGNED_CONTEXT ( ( #256 ) ) GLOBAL_UNIT_ASSIGNED_CONTEXT ( ( #146, #121, #195 ) ) REPRESENTATION_CONTEXT ( 'NONE', 'WORKASPACE' ) );
#87 = DIRECTION ( 'NONE',  ( 0.000000000000000000, 0.000000000000000000, 1.000000000000000000 ) ) ;
#88 = DIRECTION ( 'NONE',  ( -0.000000000000000000, -0.000000000000000000, -1.000000000000000000 ) ) ;
#89 = AXIS2_PLACEMENT_3D ( 'NONE', #232, #40, #109 ) ;
#90 = DIRECTION ( 'NONE',  ( 0.000000000000000000, 0.000000000000000000, 1.000000000000000000 ) ) ;
#91 = CYLINDRICAL_SURFACE ( 'NONE', #262, 20.00000000000000000 ) ;
#92 = EDGE_CURVE ( 'NONE', #36, #97, #183, .T. ) ;
#93 = PLANE ( 'NONE',  #159 ) ;
#94 = APPROVAL_PERSON_ORGANIZATION ( #293, #145, #131 ) ;
#95 = SECURITY_CLASSIFICATION ( '', '', #257 ) ;
#96 = CARTESIAN_POINT ( 'NONE',  ( 0.000000000000000000, 0.000000000000000000, 0.000000000000000000 ) ) ;
#97 = VERTEX_POINT ( 'NONE', #302 ) ;
#98 = DATE_AND_TIME ( #192, #152 ) ;
#99 = CARTESIAN_POINT ( 'NONE',  ( 0.000000000000000000, 0.000000000000000000, 10.00000000000000000 ) ) ;
#100 = EDGE_LOOP ( 'NONE', ( #278, #272 ) ) ;
#101 = CIRCLE ( 'NONE', #112, 16.19999999999999929 ) ;
#102 = ADVANCED_FACE ( 'NONE', ( #194 ), #294, .T. ) ;
#103 = ORIENTED_EDGE ( 'NONE', *, *, #197, .F. ) ;
#104 = DATE_AND_TIME ( #127, #277 ) ;
#105 = ORIENTED_EDGE ( 'NONE', *, *, #179, .F. ) ;
#106 = EDGE_LOOP ( 'NONE', ( #133, #160, #229, #15 ) ) ;
#107 = AXIS2_PLACEMENT_3D ( 'NONE', #144, #269, #30 ) ;
#108 = FACE_OUTER_BOUND ( 'NONE', #180, .T. ) ;
#109 = DIRECTION ( 'NONE',  ( -1.000000000000000000, 0.000000000000000000, 0.000000000000000000 ) ) ;
#110 = DIRECTION ( 'NONE',  ( -1.000000000000000000, 0.000000000000000000, 0.000000000000000000 ) ) ;
#111 = CARTESIAN_POINT ( 'NONE',  ( 0.000000000000000000, 0.000000000000000000, 0.000000000000000000 ) ) ;
#112 = AXIS2_PLACEMENT_3D ( 'NONE', #213, #88, #46 ) ;
#113 = CARTESIAN_POINT ( 'NONE',  ( -16.19999999999999929, 1.983927814618711846E-15, 9.999999999999992895 ) ) ;
#114 = DIRECTION ( 'NONE',  ( 1.000000000000000000, 0.000000000000000000, 0.000000000000000000 ) ) ;
#115 = DIRECTION ( 'NONE',  ( 0.000000000000000000, 0.000000000000000000, 1.000000000000000000 ) ) ;
#116 = CIRCLE ( 'NONE', #178, 0.1999999999999987899 ) ;
#117 = DIRECTION ( 'NONE',  ( 1.000000000000000000, 0.000000000000000000, 0.000000000000000000 ) ) ;
#118 = CARTESIAN_POINT ( 'NONE',  ( 20.00000000000000000, 2.449293598294706513E-15, 0.000000000000000000 ) ) ;
#119 = PERSON_AND_ORGANIZATION_ROLE ( 'creator' ) ;
#120 = LOCAL_TIME ( 11, 29, 20.00000000000000000, #11 ) ;
#121 =( NAMED_UNIT ( * ) PLANE_ANGLE_UNIT ( ) SI_UNIT ( $, .RADIAN. ) );
#122 = ADVANCED_FACE ( 'NONE', ( #208 ), #188, .F. ) ;
#123 = ORIENTED_EDGE ( 'NONE', *, *, #92, .F. ) ;
#124 = PERSON_AND_ORGANIZATION ( #7, #289 ) ;
#125 = ORIENTED_EDGE ( 'NONE', *, *, #80, .T. ) ;
#126 = CARTESIAN_POINT ( 'NONE',  ( 16.00000000000000000, 1.959434878635765131E-15, 10.19999999999998685 ) ) ;
#127 = CALENDAR_DATE ( 2022, 7, 7 ) ;
#128 = VERTEX_POINT ( 'NONE', #285 ) ;
#129 = ORIENTED_EDGE ( 'NONE', *, *, #286, .T. ) ;
#130 = AXIS2_PLACEMENT_3D ( 'NONE', #111, #90, #214 ) ;
#131 = APPROVAL_ROLE ( '' ) ;
#132 = ORIENTED_EDGE ( 'NONE', *, *, #161, .F. ) ;
#133 = ORIENTED_EDGE ( 'NONE', *, *, #135, .F. ) ;
#134 = FACE_OUTER_BOUND ( 'NONE', #32, .T. ) ;
#135 = EDGE_CURVE ( 'NONE', #128, #54, #56, .T. ) ;
#136 = AXIS2_PLACEMENT_3D ( 'NONE', #282, #115, #42 ) ;
#137 = LOCAL_TIME ( 11, 29, 20.00000000000000000, #59 ) ;
#138 = CARTESIAN_POINT ( 'NONE',  ( 0.000000000000000000, 0.000000000000000000, 10.19999999999998685 ) ) ;
#139 = CARTESIAN_POINT ( 'NONE',  ( 0.000000000000000000, 0.000000000000000000, 0.000000000000000000 ) ) ;
#140 = DIRECTION ( 'NONE',  ( 1.000000000000000000, 0.000000000000000000, 0.000000000000000000 ) ) ;
#141 = ADVANCED_FACE ( 'NONE', ( #283 ), #273, .F. ) ;
#142 = AXIS2_PLACEMENT_3D ( 'NONE', #166, #216, #140 ) ;
#143 = CARTESIAN_POINT ( 'NONE',  ( 0.000000000000000000, 0.000000000000000000, 10.00000000000000000 ) ) ;
#144 = CARTESIAN_POINT ( 'NONE',  ( 0.000000000000000000, 0.000000000000000000, 10.19999999999998685 ) ) ;
#145 = APPROVAL ( #227, 'NEURÈENÝ' ) ;
#146 =( LENGTH_UNIT ( ) NAMED_UNIT ( * ) SI_UNIT ( .MILLI., .METRE. ) );
#147 = CARTESIAN_POINT ( 'NONE',  ( 0.000000000000000000, 0.000000000000000000, 10.00000000000000000 ) ) ;
#148 = ORIENTED_EDGE ( 'NONE', *, *, #175, .F. ) ;
#149 = PERSON_AND_ORGANIZATION ( #7, #289 ) ;
#150 = EDGE_CURVE ( 'NONE', #259, #97, #177, .T. ) ;
#151 = PERSON_AND_ORGANIZATION_ROLE ( 'classification_officer' ) ;
#152 = LOCAL_TIME ( 11, 29, 20.00000000000000000, #220 ) ;
#153 = DATE_AND_TIME ( #296, #8 ) ;
#154 = ORIENTED_EDGE ( 'NONE', *, *, #179, .T. ) ;
#155 = ORIENTED_EDGE ( 'NONE', *, *, #199, .F. ) ;
#156 = COORDINATED_UNIVERSAL_TIME_OFFSET ( 1, 0, .AHEAD. ) ;
#157 = EDGE_LOOP ( 'NONE', ( #103, #155, #270, #31 ) ) ;
#158 = VECTOR ( 'NONE', #235, 1000.000000000000000 ) ;
#159 = AXIS2_PLACEMENT_3D ( 'NONE', #147, #172, #52 ) ;
#160 = ORIENTED_EDGE ( 'NONE', *, *, #197, .T. ) ;
#161 = EDGE_CURVE ( 'NONE', #280, #128, #3, .T. ) ;
#162 = CARTESIAN_POINT ( 'NONE',  ( 16.00000000000000000, 1.959434878635765131E-15, 410.0000000000000568 ) ) ;
#163 = DIRECTION ( 'NONE',  ( -1.000000000000000000, 1.224646799147353947E-16, 0.000000000000000000 ) ) ;
#164 = AXIS2_PLACEMENT_3D ( 'NONE', #139, #186, #187 ) ;
#165 = CC_DESIGN_SECURITY_CLASSIFICATION ( #95, ( #236 ) ) ;
#166 = CARTESIAN_POINT ( 'NONE',  ( 0.000000000000000000, 0.000000000000000000, 10.00000000000000000 ) ) ;
#167 = CARTESIAN_POINT ( 'NONE',  ( 0.000000000000000000, 0.000000000000000000, 10.19999999999998685 ) ) ;
#168 = AXIS2_PLACEMENT_3D ( 'NONE', #167, #87, #264 ) ;
#169 = PERSON_AND_ORGANIZATION ( #7, #289 ) ;
#170 = DESIGN_CONTEXT ( 'detailed design', #254, 'design' ) ;
#171 = DATE_AND_TIME ( #74, #120 ) ;
#172 = DIRECTION ( 'NONE',  ( 0.000000000000000000, 0.000000000000000000, 1.000000000000000000 ) ) ;
#173 = AXIS2_PLACEMENT_3D ( 'NONE', #69, #5, #237 ) ;
#174 = ORIENTED_EDGE ( 'NONE', *, *, #24, .T. ) ;
#175 = EDGE_CURVE ( 'NONE', #280, #79, #4, .T. ) ;
#176 = PERSON_AND_ORGANIZATION_ROLE ( 'design_supplier' ) ;
#177 = CIRCLE ( 'NONE', #164, 20.00000000000000000 ) ;
#178 = AXIS2_PLACEMENT_3D ( 'NONE', #27, #22, #163 ) ;
#179 = EDGE_CURVE ( 'NONE', #97, #259, #43, .T. ) ;
#180 = EDGE_LOOP ( 'NONE', ( #55, #129, #62, #132 ) ) ;
#181 = EDGE_LOOP ( 'NONE', ( #201, #17, #281, #123 ) ) ;
#182 = DIRECTION ( 'NONE',  ( 1.000000000000000000, 0.000000000000000000, -0.000000000000000000 ) ) ;
#183 = LINE ( 'NONE', #85, #158 ) ;
#184 = ADVANCED_FACE ( 'NONE', ( #212 ), #44, .T. ) ;
#185 = CARTESIAN_POINT ( 'NONE',  ( 16.19999999999999929, 0.000000000000000000, 9.999999999999992895 ) ) ;
#186 = DIRECTION ( 'NONE',  ( 0.000000000000000000, 0.000000000000000000, 1.000000000000000000 ) ) ;
#187 = DIRECTION ( 'NONE',  ( 1.000000000000000000, 0.000000000000000000, 0.000000000000000000 ) ) ;
#188 = PLANE ( 'NONE',  #130 ) ;
#189 = AXIS2_PLACEMENT_3D ( 'NONE', #233, #21, #110 ) ;
#190 = EDGE_CURVE ( 'NONE', #54, #202, #34, .T. ) ;
#191 = APPROVAL_STATUS ( 'not_yet_approved' ) ;
#192 = CALENDAR_DATE ( 2022, 7, 7 ) ;
#193 = DATE_TIME_ROLE ( 'creation_date' ) ;
#194 = FACE_OUTER_BOUND ( 'NONE', #83, .T. ) ;
#195 =( NAMED_UNIT ( * ) SI_UNIT ( $, .STERADIAN. ) SOLID_ANGLE_UNIT ( ) );
#196 = CIRCLE ( 'NONE', #48, 20.00000000000000000 ) ;
#197 = EDGE_CURVE ( 'NONE', #128, #204, #116, .T. ) ;
#198 = ADVANCED_BREP_SHAPE_REPRESENTATION ( '3c45', ( #45, #306 ), #86 ) ;
#199 = EDGE_CURVE ( 'NONE', #54, #128, #211, .T. ) ;
#200 = CALENDAR_DATE ( 2022, 7, 7 ) ;
#201 = ORIENTED_EDGE ( 'NONE', *, *, #210, .F. ) ;
#202 = VERTEX_POINT ( 'NONE', #185 ) ;
#203 = PERSON_AND_ORGANIZATION_ROLE ( 'creator' ) ;
#204 = VERTEX_POINT ( 'NONE', #113 ) ;
#205 = DIRECTION ( 'NONE',  ( 0.000000000000000000, 0.000000000000000000, 1.000000000000000000 ) ) ;
#206 = CARTESIAN_POINT ( 'NONE',  ( 0.000000000000000000, 0.000000000000000000, 410.0000000000000568 ) ) ;
#207 = VECTOR ( 'NONE', #38, 1000.000000000000000 ) ;
#208 = FACE_OUTER_BOUND ( 'NONE', #13, .T. ) ;
#209 = EDGE_CURVE ( 'NONE', #202, #204, #101, .T. ) ;
#210 = EDGE_CURVE ( 'NONE', #300, #36, #242, .T. ) ;
#211 = CIRCLE ( 'NONE', #168, 16.00000000000000000 ) ;
#212 = FACE_OUTER_BOUND ( 'NONE', #226, .T. ) ;
#213 = CARTESIAN_POINT ( 'NONE',  ( 0.000000000000000000, 0.000000000000000000, 10.00000000000000000 ) ) ;
#214 = DIRECTION ( 'NONE',  ( 1.000000000000000000, 0.000000000000000000, -0.000000000000000000 ) ) ;
#215 = CC_DESIGN_APPROVAL ( #1, ( #95 ) ) ;
#216 = DIRECTION ( 'NONE',  ( 0.000000000000000000, 0.000000000000000000, 1.000000000000000000 ) ) ;
#217 = ADVANCED_FACE ( 'NONE', ( #240 ), #91, .T. ) ;
#218 = MECHANICAL_CONTEXT ( 'NONE', #251, 'mechanical' ) ;
#219 = AXIS2_PLACEMENT_3D ( 'NONE', #265, #307, #26 ) ;
#220 = COORDINATED_UNIVERSAL_TIME_OFFSET ( 1, 0, .AHEAD. ) ;
#221 = APPLICATION_PROTOCOL_DEFINITION ( 'international standard', 'config_control_design', 1994, #254 ) ;
#222 = EDGE_CURVE ( 'NONE', #36, #300, #196, .T. ) ;
#223 = DIRECTION ( 'NONE',  ( -0.000000000000000000, -0.000000000000000000, -1.000000000000000000 ) ) ;
#224 = EDGE_LOOP ( 'NONE', ( #60, #174 ) ) ;
#225 = TOROIDAL_SURFACE ( 'NONE', #107, 16.19999999999999929, 0.2000000000000000111 ) ;
#226 = EDGE_LOOP ( 'NONE', ( #260, #279, #61, #154 ) ) ;
#227 = APPROVAL_STATUS ( 'not_yet_approved' ) ;
#228 = CYLINDRICAL_SURFACE ( 'NONE', #89, 16.00000000000000000 ) ;
#229 = ORIENTED_EDGE ( 'NONE', *, *, #209, .F. ) ;
#230 = CARTESIAN_POINT ( 'NONE',  ( -20.00000000000000000, 0.000000000000000000, 10.00000000000000000 ) ) ;
#231 = SHAPE_DEFINITION_REPRESENTATION ( #58, #198 ) ;
#232 = CARTESIAN_POINT ( 'NONE',  ( 0.000000000000000000, 0.000000000000000000, 410.0000000000000568 ) ) ;
#233 = CARTESIAN_POINT ( 'NONE',  ( 0.000000000000000000, 0.000000000000000000, 410.0000000000000568 ) ) ;
#234 = ADVANCED_FACE ( 'NONE', ( #291, #244 ), #93, .T. ) ;
#235 = DIRECTION ( 'NONE',  ( -0.000000000000000000, -0.000000000000000000, -1.000000000000000000 ) ) ;
#236 = PRODUCT_DEFINITION_FORMATION_WITH_SPECIFIED_SOURCE ( 'LIBOVOLNÝ', '', #298, .NOT_KNOWN. ) ;
#237 = DIRECTION ( 'NONE',  ( 1.000000000000000000, 0.000000000000000000, 0.000000000000000000 ) ) ;
#238 = DIRECTION ( 'NONE',  ( -1.000000000000000000, 0.000000000000000000, 0.000000000000000000 ) ) ;
#239 = CC_DESIGN_PERSON_AND_ORGANIZATION_ASSIGNMENT ( #124, #203, ( #236 ) ) ;
#240 = FACE_OUTER_BOUND ( 'NONE', #181, .T. ) ;
#241 = PERSON_AND_ORGANIZATION ( #7, #289 ) ;
#242 = CIRCLE ( 'NONE', #142, 20.00000000000000000 ) ;
#243 = CARTESIAN_POINT ( 'NONE',  ( -16.00000000000000000, 0.000000000000000000, 410.0000000000000568 ) ) ;
#244 = FACE_OUTER_BOUND ( 'NONE', #100, .T. ) ;
#245 = ORIENTED_EDGE ( 'NONE', *, *, #175, .T. ) ;
#246 = APPROVAL_DATE_TIME ( #37, #1 ) ;
#247 = ORIENTED_EDGE ( 'NONE', *, *, #135, .T. ) ;
#248 = AXIS2_PLACEMENT_3D ( 'NONE', #206, #41, #303 ) ;
#249 = PRODUCT_DEFINITION ( 'NEZNÁMÝ', '', #236, #170 ) ;
#250 = COORDINATED_UNIVERSAL_TIME_OFFSET ( 1, 0, .AHEAD. ) ;
#251 = APPLICATION_CONTEXT ( 'configuration controlled 3d designs of mechanical parts and assemblies' ) ;
#252 = CC_DESIGN_DATE_AND_TIME_ASSIGNMENT ( #98, #193, ( #249 ) ) ;
#253 = APPROVAL_ROLE ( '' ) ;
#254 = APPLICATION_CONTEXT ( 'configuration controlled 3d designs of mechanical parts and assemblies' ) ;
#255 = LINE ( 'NONE', #258, #207 ) ;
#256 = UNCERTAINTY_MEASURE_WITH_UNIT (LENGTH_MEASURE( 1.000000000000000082E-05 ), #146, 'distance_accuracy_value', 'NONE');
#257 = SECURITY_CLASSIFICATION_LEVEL ( 'unclassified' ) ;
#258 = CARTESIAN_POINT ( 'NONE',  ( 20.00000000000000000, 2.449293598294706513E-15, 10.00000000000000000 ) ) ;
#259 = VERTEX_POINT ( 'NONE', #118 ) ;
#260 = ORIENTED_EDGE ( 'NONE', *, *, #49, .F. ) ;
#261 = DIRECTION ( 'NONE',  ( 0.000000000000000000, 0.000000000000000000, 1.000000000000000000 ) ) ;
#262 = AXIS2_PLACEMENT_3D ( 'NONE', #50, #223, #266 ) ;
#263 = DIRECTION ( 'NONE',  ( 0.000000000000000000, 0.000000000000000000, 1.000000000000000000 ) ) ;
#264 = DIRECTION ( 'NONE',  ( 1.000000000000000000, 0.000000000000000000, 0.000000000000000000 ) ) ;
#265 = CARTESIAN_POINT ( 'NONE',  ( 16.19999999999999929, 0.000000000000000000, 10.19999999999998685 ) ) ;
#266 = DIRECTION ( 'NONE',  ( -1.000000000000000000, 0.000000000000000000, 0.000000000000000000 ) ) ;
#267 = APPROVAL_DATE_TIME ( #171, #275 ) ;
#268 = AXIS2_PLACEMENT_3D ( 'NONE', #304, #205, #182 ) ;
#269 = DIRECTION ( 'NONE',  ( 0.000000000000000000, 0.000000000000000000, 1.000000000000000000 ) ) ;
#270 = ORIENTED_EDGE ( 'NONE', *, *, #190, .T. ) ;
#271 = APPROVAL_STATUS ( 'not_yet_approved' ) ;
#272 = ORIENTED_EDGE ( 'NONE', *, *, #210, .T. ) ;
#273 = TOROIDAL_SURFACE ( 'NONE', #136, 16.19999999999999929, 0.2000000000000000111 ) ;
#274 = VECTOR ( 'NONE', #284, 1000.000000000000000 ) ;
#275 = APPROVAL ( #191, 'NEURÈENÝ' ) ;
#276 = APPROVAL_PERSON_ORGANIZATION ( #169, #275, #290 ) ;
#277 = LOCAL_TIME ( 11, 29, 20.00000000000000000, #250 ) ;
#278 = ORIENTED_EDGE ( 'NONE', *, *, #222, .T. ) ;
#279 = ORIENTED_EDGE ( 'NONE', *, *, #222, .F. ) ;
#280 = VERTEX_POINT ( 'NONE', #243 ) ;
#281 = ORIENTED_EDGE ( 'NONE', *, *, #150, .T. ) ;
#282 = CARTESIAN_POINT ( 'NONE',  ( 0.000000000000000000, 0.000000000000000000, 10.19999999999998685 ) ) ;
#283 = FACE_OUTER_BOUND ( 'NONE', #106, .T. ) ;
#284 = DIRECTION ( 'NONE',  ( -0.000000000000000000, -0.000000000000000000, -1.000000000000000000 ) ) ;
#285 = CARTESIAN_POINT ( 'NONE',  ( -16.00000000000000000, 0.000000000000000000, 10.19999999999998685 ) ) ;
#286 = EDGE_CURVE ( 'NONE', #79, #54, #29, .T. ) ;
#287 = AXIS2_PLACEMENT_3D ( 'NONE', #138, #263, #114 ) ;
#288 = PERSON_AND_ORGANIZATION ( #7, #289 ) ;
#289 = ORGANIZATION ( 'NEURÈENÝ', 'NEURÈENÝ', '' ) ;
#290 = APPROVAL_ROLE ( '' ) ;
#291 = FACE_BOUND ( 'NONE', #224, .T. ) ;
#292 = CLOSED_SHELL ( 'NONE', ( #141, #66, #217, #184, #234, #122, #102, #84, #297 ) ) ;
#293 = PERSON_AND_ORGANIZATION ( #7, #289 ) ;
#294 = CYLINDRICAL_SURFACE ( 'NONE', #189, 16.00000000000000000 ) ;
#295 = DIRECTION ( 'NONE',  ( 1.000000000000000000, 0.000000000000000000, 0.000000000000000000 ) ) ;
#296 = CALENDAR_DATE ( 2022, 7, 7 ) ;
#297 = ADVANCED_FACE ( 'NONE', ( #6 ), #225, .F. ) ;
#298 = PRODUCT ( '3c45', '3c45', '', ( #218 ) ) ;
#299 = APPROVAL_DATE_TIME ( #153, #145 ) ;
#300 = VERTEX_POINT ( 'NONE', #75 ) ;
#301 = APPROVAL_PERSON_ORGANIZATION ( #16, #1, #253 ) ;
#302 = CARTESIAN_POINT ( 'NONE',  ( -20.00000000000000000, 0.000000000000000000, 0.000000000000000000 ) ) ;
#303 = DIRECTION ( 'NONE',  ( 1.000000000000000000, 0.000000000000000000, 0.000000000000000000 ) ) ;
#304 = CARTESIAN_POINT ( 'NONE',  ( 0.000000000000000000, 0.000000000000000000, 410.0000000000000568 ) ) ;
#305 = CC_DESIGN_PERSON_AND_ORGANIZATION_ASSIGNMENT ( #288, #72, ( #298 ) ) ;
#306 = AXIS2_PLACEMENT_3D ( 'NONE', #96, #28, #117 ) ;
#307 = DIRECTION ( 'NONE',  ( 0.000000000000000000, -1.000000000000000000, 0.000000000000000000 ) ) ;
ENDSEC;
END-ISO-10303-21;
