ISO-10303-21;
HEADER;
FILE_DESCRIPTION (( 'STEP AP203' ),
    '1' );
FILE_NAME ('1e9c.STEP',
    '2022-07-07T09:51:24',
    ( '' ),
    ( '' ),
    'SwSTEP 2.0',
    'SolidWorks 2019',
    '' );
FILE_SCHEMA (( 'CONFIG_CONTROL_DESIGN' ));
ENDSEC;

DATA;
#1 = VERTEX_POINT ( 'NONE', #150 ) ;
#2 = PERSON_AND_ORGANIZATION ( #67, #217 ) ;
#3 = DIRECTION ( 'NONE',  ( -0.000000000000000000, -0.000000000000000000, -1.000000000000000000 ) ) ;
#4 = CIRCLE ( 'NONE', #46, 5.100000000000001421 ) ;
#5 = DIRECTION ( 'NONE',  ( 0.000000000000000000, 0.000000000000000000, 1.000000000000000000 ) ) ;
#6 = DATE_AND_TIME ( #133, #90 ) ;
#7 = ORIENTED_EDGE ( 'NONE', *, *, #50, .T. ) ;
#8 = PERSON_AND_ORGANIZATION_ROLE ( 'design_owner' ) ;
#9 = CC_DESIGN_DATE_AND_TIME_ASSIGNMENT ( #107, #195, ( #184 ) ) ;
#10 = ORIENTED_EDGE ( 'NONE', *, *, #285, .T. ) ;
#11 = AXIS2_PLACEMENT_3D ( 'NONE', #137, #278, #156 ) ;
#12 = FACE_OUTER_BOUND ( 'NONE', #244, .T. ) ;
#13 = CIRCLE ( 'NONE', #186, 8.000000000000000000 ) ;
#14 = FACE_OUTER_BOUND ( 'NONE', #43, .T. ) ;
#15 = AXIS2_PLACEMENT_3D ( 'NONE', #177, #40, #131 ) ;
#16 = COORDINATED_UNIVERSAL_TIME_OFFSET ( 1, 0, .AHEAD. ) ;
#17 = CARTESIAN_POINT ( 'NONE',  ( 0.000000000000000000, 0.000000000000000000, 5.000000000000000000 ) ) ;
#18 = ADVANCED_FACE ( 'NONE', ( #12 ), #253, .T. ) ;
#19 = DIRECTION ( 'NONE',  ( -0.000000000000000000, -0.000000000000000000, -1.000000000000000000 ) ) ;
#20 = AXIS2_PLACEMENT_3D ( 'NONE', #108, #196, #294 ) ;
#21 = CARTESIAN_POINT ( 'NONE',  ( 0.000000000000000000, 0.000000000000000000, 5.199999999999982414 ) ) ;
#22 = ORIENTED_EDGE ( 'NONE', *, *, #245, .F. ) ;
#23 = ADVANCED_FACE ( 'NONE', ( #273 ), #200, .T. ) ;
#24 = APPROVAL ( #113, 'NEURÈENÝ' ) ;
#25 = ORIENTED_EDGE ( 'NONE', *, *, #274, .T. ) ;
#26 = CC_DESIGN_APPROVAL ( #116, ( #184 ) ) ;
#27 = CC_DESIGN_PERSON_AND_ORGANIZATION_ASSIGNMENT ( #149, #247, ( #184 ) ) ;
#28 = MECHANICAL_CONTEXT ( 'NONE', #75, 'mechanical' ) ;
#29 = APPROVAL_ROLE ( '' ) ;
#30 = CYLINDRICAL_SURFACE ( 'NONE', #277, 5.100000000000001421 ) ;
#31 = DIRECTION ( 'NONE',  ( 1.000000000000000000, 0.000000000000000000, 0.000000000000000000 ) ) ;
#32 = CARTESIAN_POINT ( 'NONE',  ( 0.000000000000000000, 0.000000000000000000, 1004.999999999999886 ) ) ;
#33 = AXIS2_PLACEMENT_3D ( 'NONE', #21, #68, #276 ) ;
#34 = DIRECTION ( 'NONE',  ( 1.000000000000000000, 0.000000000000000000, 0.000000000000000000 ) ) ;
#35 = EDGE_CURVE ( 'NONE', #183, #39, #99, .T. ) ;
#36 = ORIENTED_EDGE ( 'NONE', *, *, #143, .F. ) ;
#37 = CARTESIAN_POINT ( 'NONE',  ( 0.000000000000000000, 0.000000000000000000, 5.199999999999982414 ) ) ;
#38 = PERSON_AND_ORGANIZATION ( #67, #217 ) ;
#39 = VERTEX_POINT ( 'NONE', #172 ) ;
#40 = DIRECTION ( 'NONE',  ( 1.224646799147353207E-16, 1.000000000000000000, -0.000000000000000000 ) ) ;
#41 = DIRECTION ( 'NONE',  ( 1.000000000000000000, 0.000000000000000000, 0.000000000000000000 ) ) ;
#42 = DIRECTION ( 'NONE',  ( 0.000000000000000000, 0.000000000000000000, 1.000000000000000000 ) ) ;
#43 = EDGE_LOOP ( 'NONE', ( #292, #224, #81, #153 ) ) ;
#44 = CARTESIAN_POINT ( 'NONE',  ( -8.000000000000000000, 0.000000000000000000, 5.000000000000000000 ) ) ;
#45 = ORIENTED_EDGE ( 'NONE', *, *, #274, .F. ) ;
#46 = AXIS2_PLACEMENT_3D ( 'NONE', #127, #106, #252 ) ;
#47 = PRODUCT ( '1e9c', '1e9c', '', ( #28 ) ) ;
#48 = EDGE_CURVE ( 'NONE', #129, #59, #233, .T. ) ;
#49 = AXIS2_PLACEMENT_3D ( 'NONE', #176, #225, #34 ) ;
#50 = EDGE_CURVE ( 'NONE', #209, #129, #239, .T. ) ;
#51 = DATE_AND_TIME ( #178, #265 ) ;
#52 = VERTEX_POINT ( 'NONE', #74 ) ;
#53 = APPROVAL_DATE_TIME ( #167, #116 ) ;
#54 = APPROVAL_DATE_TIME ( #51, #24 ) ;
#55 = CC_DESIGN_PERSON_AND_ORGANIZATION_ASSIGNMENT ( #228, #198, ( #125 ) ) ;
#56 = EDGE_LOOP ( 'NONE', ( #141, #45, #306, #264 ) ) ;
#57 = DIRECTION ( 'NONE',  ( -0.000000000000000000, -0.000000000000000000, -1.000000000000000000 ) ) ;
#58 = COORDINATED_UNIVERSAL_TIME_OFFSET ( 1, 0, .AHEAD. ) ;
#59 = VERTEX_POINT ( 'NONE', #166 ) ;
#60 = DIRECTION ( 'NONE',  ( -1.000000000000000000, 0.000000000000000000, 0.000000000000000000 ) ) ;
#61 = DIRECTION ( 'NONE',  ( -0.000000000000000000, -0.000000000000000000, -1.000000000000000000 ) ) ;
#62 = DIRECTION ( 'NONE',  ( 1.000000000000000000, 0.000000000000000000, 0.000000000000000000 ) ) ;
#63 = COORDINATED_UNIVERSAL_TIME_OFFSET ( 1, 0, .AHEAD. ) ;
#64 = CARTESIAN_POINT ( 'NONE',  ( 0.000000000000000000, 0.000000000000000000, 5.199999999999982414 ) ) ;
#65 = DIRECTION ( 'NONE',  ( 1.000000000000000000, 0.000000000000000000, 0.000000000000000000 ) ) ;
#66 = CARTESIAN_POINT ( 'NONE',  ( -5.100000000000001421, 0.000000000000000000, 5.199999999999982414 ) ) ;
#67 = PERSON ( 'NEURÈENÝ', 'NEURÈENÝ', 'NEURÈENÝ', ('NEURÈENÝ'), ('NEURÈENÝ'), ('NEURÈENÝ') ) ;
#68 = DIRECTION ( 'NONE',  ( 0.000000000000000000, 0.000000000000000000, 1.000000000000000000 ) ) ;
#69 = EDGE_LOOP ( 'NONE', ( #96, #262, #36, #164 ) ) ;
#70 = ORIENTED_EDGE ( 'NONE', *, *, #242, .F. ) ;
#71 = ADVANCED_FACE ( 'NONE', ( #267 ), #30, .T. ) ;
#72 = EDGE_CURVE ( 'NONE', #52, #248, #171, .T. ) ;
#73 = CIRCLE ( 'NONE', #240, 5.300000000000000711 ) ;
#74 = CARTESIAN_POINT ( 'NONE',  ( -5.100000000000001421, 0.000000000000000000, 1004.999999999999886 ) ) ;
#75 = APPLICATION_CONTEXT ( 'configuration controlled 3d designs of mechanical parts and assemblies' ) ;
#76 = CALENDAR_DATE ( 2022, 7, 7 ) ;
#77 = ORIENTED_EDGE ( 'NONE', *, *, #72, .T. ) ;
#78 = DIRECTION ( 'NONE',  ( -0.000000000000000000, -0.000000000000000000, -1.000000000000000000 ) ) ;
#79 = FACE_BOUND ( 'NONE', #169, .T. ) ;
#80 = CIRCLE ( 'NONE', #163, 5.300000000000000711 ) ;
#81 = ORIENTED_EDGE ( 'NONE', *, *, #232, .T. ) ;
#82 = LOCAL_TIME ( 11, 51, 24.00000000000000000, #58 ) ;
#83 = FACE_OUTER_BOUND ( 'NONE', #226, .T. ) ;
#84 = APPROVAL_STATUS ( 'not_yet_approved' ) ;
#85 = LINE ( 'NONE', #44, #165 ) ;
#86 = DATE_AND_TIME ( #104, #82 ) ;
#87 = DIRECTION ( 'NONE',  ( -0.000000000000000000, -0.000000000000000000, -1.000000000000000000 ) ) ;
#88 = MANIFOLD_SOLID_BREP ( 'Zaoblit1', #97 ) ;
#89 = DIRECTION ( 'NONE',  ( 1.000000000000000000, 0.000000000000000000, 0.000000000000000000 ) ) ;
#90 = LOCAL_TIME ( 11, 51, 24.00000000000000000, #63 ) ;
#91 = ADVANCED_FACE ( 'NONE', ( #301 ), #109, .F. ) ;
#92 = DIRECTION ( 'NONE',  ( 1.000000000000000000, 0.000000000000000000, -0.000000000000000000 ) ) ;
#93 = ADVANCED_FACE ( 'NONE', ( #205 ), #302, .F. ) ;
#94 = CIRCLE ( 'NONE', #132, 8.000000000000000000 ) ;
#95 = EDGE_LOOP ( 'NONE', ( #235, #105 ) ) ;
#96 = ORIENTED_EDGE ( 'NONE', *, *, #50, .F. ) ;
#97 = CLOSED_SHELL ( 'NONE', ( #91, #71, #18, #219, #258, #93, #23, #152, #212 ) ) ;
#98 = CC_DESIGN_SECURITY_CLASSIFICATION ( #125, ( #119 ) ) ;
#99 = LINE ( 'NONE', #126, #146 ) ;
#100 = PRODUCT_RELATED_PRODUCT_CATEGORY ( 'detail', '', ( #47 ) ) ;
#101 = APPROVAL_STATUS ( 'not_yet_approved' ) ;
#102 = APPROVAL_PERSON_ORGANIZATION ( #2, #116, #191 ) ;
#103 = ORIENTED_EDGE ( 'NONE', *, *, #245, .T. ) ;
#104 = CALENDAR_DATE ( 2022, 7, 7 ) ;
#105 = ORIENTED_EDGE ( 'NONE', *, *, #121, .F. ) ;
#106 = DIRECTION ( 'NONE',  ( 0.000000000000000000, 0.000000000000000000, 1.000000000000000000 ) ) ;
#107 = DATE_AND_TIME ( #270, #190 ) ;
#108 = CARTESIAN_POINT ( 'NONE',  ( 0.000000000000000000, 0.000000000000000000, 5.000000000000000000 ) ) ;
#109 = TOROIDAL_SURFACE ( 'NONE', #283, 5.300000000000000711, 0.2000000000000000111 ) ;
#110 = CIRCLE ( 'NONE', #15, 0.1999999999999996503 ) ;
#111 = CARTESIAN_POINT ( 'NONE',  ( 0.000000000000000000, 0.000000000000000000, 5.199999999999982414 ) ) ;
#112 = CARTESIAN_POINT ( 'NONE',  ( 5.100000000000001421, 6.245698675651502811E-16, 5.199999999999982414 ) ) ;
#113 = APPROVAL_STATUS ( 'not_yet_approved' ) ;
#114 = CARTESIAN_POINT ( 'NONE',  ( -5.100000000000001421, 0.000000000000000000, 1004.999999999999886 ) ) ;
#115 = CARTESIAN_POINT ( 'NONE',  ( 0.000000000000000000, 0.000000000000000000, 1004.999999999999886 ) ) ;
#116 = APPROVAL ( #101, 'NEURÈENÝ' ) ;
#117 = EDGE_CURVE ( 'NONE', #52, #209, #300, .T. ) ;
#118 = DIRECTION ( 'NONE',  ( 0.000000000000000000, 0.000000000000000000, 1.000000000000000000 ) ) ;
#119 = PRODUCT_DEFINITION_FORMATION_WITH_SPECIFIED_SOURCE ( 'LIBOVOLNÝ', '', #47, .NOT_KNOWN. ) ;
#120 = EDGE_CURVE ( 'NONE', #193, #39, #94, .T. ) ;
#121 = EDGE_CURVE ( 'NONE', #39, #193, #13, .T. ) ;
#122 = PERSON_AND_ORGANIZATION ( #67, #217 ) ;
#123 = ORIENTED_EDGE ( 'NONE', *, *, #35, .T. ) ;
#124 = PLANE ( 'NONE',  #279 ) ;
#125 = SECURITY_CLASSIFICATION ( '', '', #174 ) ;
#126 = CARTESIAN_POINT ( 'NONE',  ( 8.000000000000000000, 9.797174393178825657E-16, 5.000000000000000000 ) ) ;
#127 = CARTESIAN_POINT ( 'NONE',  ( 0.000000000000000000, 0.000000000000000000, 1004.999999999999886 ) ) ;
#128 = PERSON_AND_ORGANIZATION ( #67, #217 ) ;
#129 = VERTEX_POINT ( 'NONE', #112 ) ;
#130 = DIRECTION ( 'NONE',  ( 0.000000000000000000, -1.000000000000000000, 0.000000000000000000 ) ) ;
#131 = DIRECTION ( 'NONE',  ( -1.000000000000000000, 1.224646799147353454E-16, 0.000000000000000000 ) ) ;
#132 = AXIS2_PLACEMENT_3D ( 'NONE', #179, #118, #41 ) ;
#133 = CALENDAR_DATE ( 2022, 7, 7 ) ;
#134 = CIRCLE ( 'NONE', #305, 8.000000000000000000 ) ;
#135 = CC_DESIGN_APPROVAL ( #295, ( #119 ) ) ;
#136 = DIRECTION ( 'NONE',  ( 0.000000000000000000, 0.000000000000000000, 1.000000000000000000 ) ) ;
#137 = CARTESIAN_POINT ( 'NONE',  ( 0.000000000000000000, 0.000000000000000000, 0.000000000000000000 ) ) ;
#138 = CARTESIAN_POINT ( 'NONE',  ( 0.000000000000000000, 0.000000000000000000, 0.000000000000000000 ) ) ;
#139 = APPROVAL_PERSON_ORGANIZATION ( #128, #24, #291 ) ;
#140 = ORIENTED_EDGE ( 'NONE', *, *, #285, .F. ) ;
#141 = ORIENTED_EDGE ( 'NONE', *, *, #237, .F. ) ;
#142 = CC_DESIGN_PERSON_AND_ORGANIZATION_ASSIGNMENT ( #122, #215, ( #119 ) ) ;
#143 = EDGE_CURVE ( 'NONE', #59, #1, #80, .T. ) ;
#144 = AXIS2_PLACEMENT_3D ( 'NONE', #255, #293, #62 ) ;
#145 = EDGE_CURVE ( 'NONE', #160, #183, #134, .T. ) ;
#146 = VECTOR ( 'NONE', #78, 1000.000000000000000 ) ;
#147 = DIRECTION ( 'NONE',  ( -0.000000000000000000, -0.000000000000000000, -1.000000000000000000 ) ) ;
#148 = CARTESIAN_POINT ( 'NONE',  ( 5.300000000000000711, 0.000000000000000000, 5.199999999999982414 ) ) ;
#149 = PERSON_AND_ORGANIZATION ( #67, #217 ) ;
#150 = CARTESIAN_POINT ( 'NONE',  ( -5.300000000000000711, 6.490628035480971924E-16, 4.999999999999991118 ) ) ;
#151 = ORIENTED_EDGE ( 'NONE', *, *, #117, .T. ) ;
#152 = ADVANCED_FACE ( 'NONE', ( #158 ), #259, .T. ) ;
#153 = ORIENTED_EDGE ( 'NONE', *, *, #120, .T. ) ;
#154 = DIRECTION ( 'NONE',  ( 1.000000000000000000, 0.000000000000000000, 0.000000000000000000 ) ) ;
#155 = CARTESIAN_POINT ( 'NONE',  ( 0.000000000000000000, 0.000000000000000000, 5.000000000000000000 ) ) ;
#156 = DIRECTION ( 'NONE',  ( 1.000000000000000000, 0.000000000000000000, -0.000000000000000000 ) ) ;
#157 = CC_DESIGN_DATE_AND_TIME_ASSIGNMENT ( #86, #192, ( #125 ) ) ;
#158 = FACE_OUTER_BOUND ( 'NONE', #269, .T. ) ;
#159 = DIRECTION ( 'NONE',  ( 0.000000000000000000, 0.000000000000000000, 1.000000000000000000 ) ) ;
#160 = VERTEX_POINT ( 'NONE', #181 ) ;
#161 = CARTESIAN_POINT ( 'NONE',  ( -8.000000000000000000, 0.000000000000000000, 0.000000000000000000 ) ) ;
#162 = EDGE_LOOP ( 'NONE', ( #22, #304, #25, #189 ) ) ;
#163 = AXIS2_PLACEMENT_3D ( 'NONE', #231, #19, #230 ) ;
#164 = ORIENTED_EDGE ( 'NONE', *, *, #48, .F. ) ;
#165 = VECTOR ( 'NONE', #61, 1000.000000000000000 ) ;
#166 = CARTESIAN_POINT ( 'NONE',  ( 5.300000000000000711, 0.000000000000000000, 4.999999999999991118 ) ) ;
#167 = DATE_AND_TIME ( #76, #286 ) ;
#168 = APPROVAL_DATE_TIME ( #6, #295 ) ;
#169 = EDGE_LOOP ( 'NONE', ( #221, #175 ) ) ;
#170 = APPLICATION_PROTOCOL_DEFINITION ( 'international standard', 'config_control_design', 1994, #75 ) ;
#171 = CIRCLE ( 'NONE', #199, 5.100000000000001421 ) ;
#172 = CARTESIAN_POINT ( 'NONE',  ( 8.000000000000000000, 9.797174393178825657E-16, 0.000000000000000000 ) ) ;
#173 =( LENGTH_UNIT ( ) NAMED_UNIT ( * ) SI_UNIT ( .MILLI., .METRE. ) );
#174 = SECURITY_CLASSIFICATION_LEVEL ( 'unclassified' ) ;
#175 = ORIENTED_EDGE ( 'NONE', *, *, #287, .T. ) ;
#176 = CARTESIAN_POINT ( 'NONE',  ( 0.000000000000000000, 0.000000000000000000, 0.000000000000000000 ) ) ;
#177 = CARTESIAN_POINT ( 'NONE',  ( -5.300000000000000711, 6.490628035480972910E-16, 5.199999999999982414 ) ) ;
#178 = CALENDAR_DATE ( 2022, 7, 7 ) ;
#179 = CARTESIAN_POINT ( 'NONE',  ( 0.000000000000000000, 0.000000000000000000, 0.000000000000000000 ) ) ;
#180 = AXIS2_PLACEMENT_3D ( 'NONE', #204, #299, #263 ) ;
#181 = CARTESIAN_POINT ( 'NONE',  ( -8.000000000000000000, 0.000000000000000000, 5.000000000000000000 ) ) ;
#182 = DIRECTION ( 'NONE',  ( 0.000000000000000000, 0.000000000000000000, 1.000000000000000000 ) ) ;
#183 = VERTEX_POINT ( 'NONE', #280 ) ;
#184 = PRODUCT_DEFINITION ( 'NEZNÁMÝ', '', #119, #303 ) ;
#185 = VECTOR ( 'NONE', #87, 1000.000000000000000 ) ;
#186 = AXIS2_PLACEMENT_3D ( 'NONE', #138, #136, #89 ) ;
#187 = PRODUCT_DEFINITION_SHAPE ( 'NONE', 'NONE',  #184 ) ;
#188 = ADVANCED_BREP_SHAPE_REPRESENTATION ( '1e9c', ( #88, #49 ), #236 ) ;
#189 = ORIENTED_EDGE ( 'NONE', *, *, #117, .F. ) ;
#190 = LOCAL_TIME ( 11, 51, 24.00000000000000000, #220 ) ;
#191 = APPROVAL_ROLE ( '' ) ;
#192 = DATE_TIME_ROLE ( 'classification_date' ) ;
#193 = VERTEX_POINT ( 'NONE', #161 ) ;
#194 = DIRECTION ( 'NONE',  ( 0.000000000000000000, 0.000000000000000000, 1.000000000000000000 ) ) ;
#195 = DATE_TIME_ROLE ( 'creation_date' ) ;
#196 = DIRECTION ( 'NONE',  ( -0.000000000000000000, -0.000000000000000000, -1.000000000000000000 ) ) ;
#197 = CARTESIAN_POINT ( 'NONE',  ( 5.100000000000001421, 6.245698675651502811E-16, 1004.999999999999886 ) ) ;
#198 = PERSON_AND_ORGANIZATION_ROLE ( 'classification_officer' ) ;
#199 = AXIS2_PLACEMENT_3D ( 'NONE', #254, #42, #65 ) ;
#200 = CYLINDRICAL_SURFACE ( 'NONE', #241, 5.100000000000001421 ) ;
#201 =( NAMED_UNIT ( * ) PLANE_ANGLE_UNIT ( ) SI_UNIT ( $, .RADIAN. ) );
#202 = VECTOR ( 'NONE', #147, 1000.000000000000000 ) ;
#203 = DIRECTION ( 'NONE',  ( 0.000000000000000000, 0.000000000000000000, 1.000000000000000000 ) ) ;
#204 = CARTESIAN_POINT ( 'NONE',  ( 0.000000000000000000, 0.000000000000000000, 5.000000000000000000 ) ) ;
#205 = FACE_OUTER_BOUND ( 'NONE', #95, .T. ) ;
#206 = DIRECTION ( 'NONE',  ( 1.000000000000000000, 0.000000000000000000, 0.000000000000000000 ) ) ;
#207 = CIRCLE ( 'NONE', #229, 5.100000000000001421 ) ;
#208 = DIRECTION ( 'NONE',  ( -1.000000000000000000, 0.000000000000000000, 0.000000000000000000 ) ) ;
#209 = VERTEX_POINT ( 'NONE', #66 ) ;
#210 = AXIS2_PLACEMENT_3D ( 'NONE', #148, #130, #272 ) ;
#211 = APPROVAL_PERSON_ORGANIZATION ( #243, #295, #29 ) ;
#212 = ADVANCED_FACE ( 'NONE', ( #260 ), #249, .F. ) ;
#213 = CC_DESIGN_PERSON_AND_ORGANIZATION_ASSIGNMENT ( #222, #8, ( #47 ) ) ;
#214 = APPLICATION_PROTOCOL_DEFINITION ( 'international standard', 'config_control_design', 1994, #266 ) ;
#215 = PERSON_AND_ORGANIZATION_ROLE ( 'creator' ) ;
#216 = CARTESIAN_POINT ( 'NONE',  ( 0.000000000000000000, 0.000000000000000000, 1004.999999999999886 ) ) ;
#217 = ORGANIZATION ( 'NEURÈENÝ', 'NEURÈENÝ', '' ) ;
#218 = DIRECTION ( 'NONE',  ( 1.000000000000000000, 0.000000000000000000, 0.000000000000000000 ) ) ;
#219 = ADVANCED_FACE ( 'NONE', ( #14 ), #281, .T. ) ;
#220 = COORDINATED_UNIVERSAL_TIME_OFFSET ( 1, 0, .AHEAD. ) ;
#221 = ORIENTED_EDGE ( 'NONE', *, *, #143, .T. ) ;
#222 = PERSON_AND_ORGANIZATION ( #67, #217 ) ;
#223 = SHAPE_DEFINITION_REPRESENTATION ( #187, #188 ) ;
#224 = ORIENTED_EDGE ( 'NONE', *, *, #145, .F. ) ;
#225 = DIRECTION ( 'NONE',  ( 0.000000000000000000, 0.000000000000000000, 1.000000000000000000 ) ) ;
#226 = EDGE_LOOP ( 'NONE', ( #251, #10 ) ) ;
#227 = LINE ( 'NONE', #246, #202 ) ;
#228 = PERSON_AND_ORGANIZATION ( #67, #217 ) ;
#229 = AXIS2_PLACEMENT_3D ( 'NONE', #37, #5, #31 ) ;
#230 = DIRECTION ( 'NONE',  ( 1.000000000000000000, 0.000000000000000000, 0.000000000000000000 ) ) ;
#231 = CARTESIAN_POINT ( 'NONE',  ( 0.000000000000000000, 0.000000000000000000, 5.000000000000000000 ) ) ;
#232 = EDGE_CURVE ( 'NONE', #160, #193, #85, .T. ) ;
#233 = CIRCLE ( 'NONE', #210, 0.1999999999999996503 ) ;
#234 = UNCERTAINTY_MEASURE_WITH_UNIT (LENGTH_MEASURE( 1.000000000000000082E-05 ), #173, 'distance_accuracy_value', 'NONE');
#235 = ORIENTED_EDGE ( 'NONE', *, *, #120, .F. ) ;
#236 =( GEOMETRIC_REPRESENTATION_CONTEXT ( 3 ) GLOBAL_UNCERTAINTY_ASSIGNED_CONTEXT ( ( #234 ) ) GLOBAL_UNIT_ASSIGNED_CONTEXT ( ( #173, #201, #297 ) ) REPRESENTATION_CONTEXT ( 'NONE', 'WORKASPACE' ) );
#237 = EDGE_CURVE ( 'NONE', #209, #1, #110, .T. ) ;
#238 = ORIENTED_EDGE ( 'NONE', *, *, #72, .F. ) ;
#239 = CIRCLE ( 'NONE', #271, 5.100000000000001421 ) ;
#240 = AXIS2_PLACEMENT_3D ( 'NONE', #250, #57, #218 ) ;
#241 = AXIS2_PLACEMENT_3D ( 'NONE', #32, #296, #60 ) ;
#242 = EDGE_CURVE ( 'NONE', #248, #129, #227, .T. ) ;
#243 = PERSON_AND_ORGANIZATION ( #67, #217 ) ;
#244 = EDGE_LOOP ( 'NONE', ( #140, #123, #288, #284 ) ) ;
#245 = EDGE_CURVE ( 'NONE', #248, #52, #4, .T. ) ;
#246 = CARTESIAN_POINT ( 'NONE',  ( 5.100000000000001421, 6.245698675651502811E-16, 1004.999999999999886 ) ) ;
#247 = PERSON_AND_ORGANIZATION_ROLE ( 'creator' ) ;
#248 = VERTEX_POINT ( 'NONE', #197 ) ;
#249 = TOROIDAL_SURFACE ( 'NONE', #33, 5.300000000000000711, 0.2000000000000000111 ) ;
#250 = CARTESIAN_POINT ( 'NONE',  ( 0.000000000000000000, 0.000000000000000000, 5.000000000000000000 ) ) ;
#251 = ORIENTED_EDGE ( 'NONE', *, *, #145, .T. ) ;
#252 = DIRECTION ( 'NONE',  ( 1.000000000000000000, 0.000000000000000000, 0.000000000000000000 ) ) ;
#253 = CYLINDRICAL_SURFACE ( 'NONE', #20, 8.000000000000000000 ) ;
#254 = CARTESIAN_POINT ( 'NONE',  ( 0.000000000000000000, 0.000000000000000000, 1004.999999999999886 ) ) ;
#255 = CARTESIAN_POINT ( 'NONE',  ( 0.000000000000000000, 0.000000000000000000, 5.000000000000000000 ) ) ;
#256 = DIRECTION ( 'NONE',  ( 0.000000000000000000, 0.000000000000000000, 1.000000000000000000 ) ) ;
#257 = AXIS2_PLACEMENT_3D ( 'NONE', #115, #182, #92 ) ;
#258 = ADVANCED_FACE ( 'NONE', ( #79, #83 ), #124, .T. ) ;
#259 = PLANE ( 'NONE',  #257 ) ;
#260 = FACE_OUTER_BOUND ( 'NONE', #56, .T. ) ;
#261 = CC_DESIGN_PERSON_AND_ORGANIZATION_ASSIGNMENT ( #38, #268, ( #119 ) ) ;
#262 = ORIENTED_EDGE ( 'NONE', *, *, #237, .T. ) ;
#263 = DIRECTION ( 'NONE',  ( -1.000000000000000000, 0.000000000000000000, 0.000000000000000000 ) ) ;
#264 = ORIENTED_EDGE ( 'NONE', *, *, #287, .F. ) ;
#265 = LOCAL_TIME ( 11, 51, 24.00000000000000000, #16 ) ;
#266 = APPLICATION_CONTEXT ( 'configuration controlled 3d designs of mechanical parts and assemblies' ) ;
#267 = FACE_OUTER_BOUND ( 'NONE', #162, .T. ) ;
#268 = PERSON_AND_ORGANIZATION_ROLE ( 'design_supplier' ) ;
#269 = EDGE_LOOP ( 'NONE', ( #77, #103 ) ) ;
#270 = CALENDAR_DATE ( 2022, 7, 7 ) ;
#271 = AXIS2_PLACEMENT_3D ( 'NONE', #111, #203, #298 ) ;
#272 = DIRECTION ( 'NONE',  ( 0.000000000000000000, 0.000000000000000000, -1.000000000000000000 ) ) ;
#273 = FACE_OUTER_BOUND ( 'NONE', #282, .T. ) ;
#274 = EDGE_CURVE ( 'NONE', #129, #209, #207, .T. ) ;
#275 = DIRECTION ( 'NONE',  ( 1.000000000000000000, 0.000000000000000000, -0.000000000000000000 ) ) ;
#276 = DIRECTION ( 'NONE',  ( 1.000000000000000000, 0.000000000000000000, 0.000000000000000000 ) ) ;
#277 = AXIS2_PLACEMENT_3D ( 'NONE', #216, #3, #208 ) ;
#278 = DIRECTION ( 'NONE',  ( 0.000000000000000000, 0.000000000000000000, 1.000000000000000000 ) ) ;
#279 = AXIS2_PLACEMENT_3D ( 'NONE', #155, #194, #275 ) ;
#280 = CARTESIAN_POINT ( 'NONE',  ( 8.000000000000000000, 9.797174393178825657E-16, 5.000000000000000000 ) ) ;
#281 = CYLINDRICAL_SURFACE ( 'NONE', #180, 8.000000000000000000 ) ;
#282 = EDGE_LOOP ( 'NONE', ( #70, #238, #151, #7 ) ) ;
#283 = AXIS2_PLACEMENT_3D ( 'NONE', #64, #256, #206 ) ;
#284 = ORIENTED_EDGE ( 'NONE', *, *, #232, .F. ) ;
#285 = EDGE_CURVE ( 'NONE', #183, #160, #289, .T. ) ;
#286 = LOCAL_TIME ( 11, 51, 24.00000000000000000, #290 ) ;
#287 = EDGE_CURVE ( 'NONE', #1, #59, #73, .T. ) ;
#288 = ORIENTED_EDGE ( 'NONE', *, *, #121, .T. ) ;
#289 = CIRCLE ( 'NONE', #144, 8.000000000000000000 ) ;
#290 = COORDINATED_UNIVERSAL_TIME_OFFSET ( 1, 0, .AHEAD. ) ;
#291 = APPROVAL_ROLE ( '' ) ;
#292 = ORIENTED_EDGE ( 'NONE', *, *, #35, .F. ) ;
#293 = DIRECTION ( 'NONE',  ( 0.000000000000000000, 0.000000000000000000, 1.000000000000000000 ) ) ;
#294 = DIRECTION ( 'NONE',  ( -1.000000000000000000, 0.000000000000000000, 0.000000000000000000 ) ) ;
#295 = APPROVAL ( #84, 'NEURÈENÝ' ) ;
#296 = DIRECTION ( 'NONE',  ( -0.000000000000000000, -0.000000000000000000, -1.000000000000000000 ) ) ;
#297 =( NAMED_UNIT ( * ) SI_UNIT ( $, .STERADIAN. ) SOLID_ANGLE_UNIT ( ) );
#298 = DIRECTION ( 'NONE',  ( 1.000000000000000000, 0.000000000000000000, 0.000000000000000000 ) ) ;
#299 = DIRECTION ( 'NONE',  ( -0.000000000000000000, -0.000000000000000000, -1.000000000000000000 ) ) ;
#300 = LINE ( 'NONE', #114, #185 ) ;
#301 = FACE_OUTER_BOUND ( 'NONE', #69, .T. ) ;
#302 = PLANE ( 'NONE',  #11 ) ;
#303 = DESIGN_CONTEXT ( 'detailed design', #266, 'design' ) ;
#304 = ORIENTED_EDGE ( 'NONE', *, *, #242, .T. ) ;
#305 = AXIS2_PLACEMENT_3D ( 'NONE', #17, #159, #154 ) ;
#306 = ORIENTED_EDGE ( 'NONE', *, *, #48, .T. ) ;
#307 = CC_DESIGN_APPROVAL ( #24, ( #125 ) ) ;
ENDSEC;
END-ISO-10303-21;
