ISO-10303-21;
HEADER;
FILE_DESCRIPTION (( 'STEP AP203' ),
    '1' );
FILE_NAME ('4bc1.STEP',
    '2022-07-07T10:34:14',
    ( '' ),
    ( '' ),
    'SwSTEP 2.0',
    'SolidWorks 2019',
    '' );
FILE_SCHEMA (( 'CONFIG_CONTROL_DESIGN' ));
ENDSEC;

DATA;
#1 = DIRECTION ( 'NONE',  ( -0.000000000000000000, -0.000000000000000000, -1.000000000000000000 ) ) ;
#2 = CC_DESIGN_PERSON_AND_ORGANIZATION_ASSIGNMENT ( #257, #69, ( #230 ) ) ;
#3 = DIRECTION ( 'NONE',  ( -0.000000000000000000, -0.000000000000000000, -1.000000000000000000 ) ) ;
#4 = FACE_OUTER_BOUND ( 'NONE', #60, .T. ) ;
#5 = DIRECTION ( 'NONE',  ( 0.000000000000000000, 0.000000000000000000, 1.000000000000000000 ) ) ;
#6 = LOCAL_TIME ( 12, 34, 14.00000000000000000, #113 ) ;
#7 = DIRECTION ( 'NONE',  ( 1.000000000000000000, 0.000000000000000000, -0.000000000000000000 ) ) ;
#8 = AXIS2_PLACEMENT_3D ( 'NONE', #288, #234, #181 ) ;
#9 =( NAMED_UNIT ( * ) SI_UNIT ( $, .STERADIAN. ) SOLID_ANGLE_UNIT ( ) );
#10 = EDGE_CURVE ( 'NONE', #253, #156, #202, .T. ) ;
#11 = CC_DESIGN_APPROVAL ( #222, ( #230 ) ) ;
#12 = PERSON_AND_ORGANIZATION ( #100, #223 ) ;
#13 = VERTEX_POINT ( 'NONE', #258 ) ;
#14 = MECHANICAL_CONTEXT ( 'NONE', #247, 'mechanical' ) ;
#15 = DIRECTION ( 'NONE',  ( 0.000000000000000000, 0.000000000000000000, 1.000000000000000000 ) ) ;
#16 = CALENDAR_DATE ( 2022, 7, 7 ) ;
#17 = VERTEX_POINT ( 'NONE', #67 ) ;
#18 = CARTESIAN_POINT ( 'NONE',  ( 0.000000000000000000, 0.000000000000000000, 0.000000000000000000 ) ) ;
#19 = DIRECTION ( 'NONE',  ( 1.000000000000000000, 0.000000000000000000, 0.000000000000000000 ) ) ;
#20 = CC_DESIGN_APPROVAL ( #107, ( #214 ) ) ;
#21 = APPROVAL_ROLE ( '' ) ;
#22 = ORIENTED_EDGE ( 'NONE', *, *, #66, .F. ) ;
#23 = ADVANCED_BREP_SHAPE_REPRESENTATION ( '4bc1', ( #74, #283 ), #86 ) ;
#24 = PERSON_AND_ORGANIZATION ( #100, #223 ) ;
#25 = CARTESIAN_POINT ( 'NONE',  ( 0.000000000000000000, 0.000000000000000000, 2.000000000000000000 ) ) ;
#26 = CC_DESIGN_DATE_AND_TIME_ASSIGNMENT ( #298, #284, ( #185 ) ) ;
#27 = DIRECTION ( 'NONE',  ( -0.000000000000000000, -0.000000000000000000, -1.000000000000000000 ) ) ;
#28 = CIRCLE ( 'NONE', #54, 0.2000000000000000944 ) ;
#29 = CARTESIAN_POINT ( 'NONE',  ( 0.000000000000000000, 0.000000000000000000, 2.200000000000007283 ) ) ;
#30 = CARTESIAN_POINT ( 'NONE',  ( 0.000000000000000000, 0.000000000000000000, 2.000000000000000000 ) ) ;
#31 = CARTESIAN_POINT ( 'NONE',  ( 1.300000000000000266, 0.000000000000000000, 2.000000000000003553 ) ) ;
#32 = AXIS2_PLACEMENT_3D ( 'NONE', #290, #167, #195 ) ;
#33 = ORIENTED_EDGE ( 'NONE', *, *, #232, .T. ) ;
#34 = ADVANCED_FACE ( 'NONE', ( #241 ), #307, .T. ) ;
#35 = ORIENTED_EDGE ( 'NONE', *, *, #270, .F. ) ;
#36 = AXIS2_PLACEMENT_3D ( 'NONE', #52, #5, #7 ) ;
#37 = EDGE_LOOP ( 'NONE', ( #62, #161, #224, #184 ) ) ;
#38 = SHAPE_DEFINITION_REPRESENTATION ( #220, #23 ) ;
#39 = ORIENTED_EDGE ( 'NONE', *, *, #275, .T. ) ;
#40 = AXIS2_PLACEMENT_3D ( 'NONE', #29, #96, #170 ) ;
#41 = LINE ( 'NONE', #114, #272 ) ;
#42 = UNCERTAINTY_MEASURE_WITH_UNIT (LENGTH_MEASURE( 1.000000000000000082E-05 ), #252, 'distance_accuracy_value', 'NONE');
#43 = CLOSED_SHELL ( 'NONE', ( #250, #34, #254, #189, #102, #135, #155, #174, #296 ) ) ;
#44 = DIRECTION ( 'NONE',  ( 1.000000000000000000, 0.000000000000000000, 0.000000000000000000 ) ) ;
#45 = DIRECTION ( 'NONE',  ( 0.000000000000000000, 0.000000000000000000, 1.000000000000000000 ) ) ;
#46 = CC_DESIGN_PERSON_AND_ORGANIZATION_ASSIGNMENT ( #139, #301, ( #126 ) ) ;
#47 = FACE_OUTER_BOUND ( 'NONE', #132, .T. ) ;
#48 = VERTEX_POINT ( 'NONE', #50 ) ;
#49 = DATE_TIME_ROLE ( 'classification_date' ) ;
#50 = CARTESIAN_POINT ( 'NONE',  ( -2.000000000000000000, 0.000000000000000000, 0.000000000000000000 ) ) ;
#51 = EDGE_CURVE ( 'NONE', #198, #285, #201, .T. ) ;
#52 = CARTESIAN_POINT ( 'NONE',  ( 0.000000000000000000, 0.000000000000000000, 202.0000000000000000 ) ) ;
#53 = DIRECTION ( 'NONE',  ( 0.000000000000000000, 0.000000000000000000, 1.000000000000000000 ) ) ;
#54 = AXIS2_PLACEMENT_3D ( 'NONE', #149, #95, #190 ) ;
#55 = FACE_OUTER_BOUND ( 'NONE', #203, .T. ) ;
#56 = AXIS2_PLACEMENT_3D ( 'NONE', #188, #110, #65 ) ;
#57 = DIRECTION ( 'NONE',  ( -0.000000000000000000, -0.000000000000000000, -1.000000000000000000 ) ) ;
#58 = ORIENTED_EDGE ( 'NONE', *, *, #51, .T. ) ;
#59 = PRODUCT_RELATED_PRODUCT_CATEGORY ( 'detail', '', ( #126 ) ) ;
#60 = EDGE_LOOP ( 'NONE', ( #227, #172, #175, #229 ) ) ;
#61 = DATE_AND_TIME ( #280, #248 ) ;
#62 = ORIENTED_EDGE ( 'NONE', *, *, #51, .F. ) ;
#63 = LOCAL_TIME ( 12, 34, 14.00000000000000000, #207 ) ;
#64 = PERSON_AND_ORGANIZATION ( #100, #223 ) ;
#65 = DIRECTION ( 'NONE',  ( -1.000000000000000000, 0.000000000000000000, 0.000000000000000000 ) ) ;
#66 = EDGE_CURVE ( 'NONE', #156, #253, #83, .T. ) ;
#67 = CARTESIAN_POINT ( 'NONE',  ( -2.000000000000000000, 0.000000000000000000, 2.000000000000000000 ) ) ;
#68 = DIRECTION ( 'NONE',  ( -0.000000000000000000, -0.000000000000000000, -1.000000000000000000 ) ) ;
#69 = PERSON_AND_ORGANIZATION_ROLE ( 'design_supplier' ) ;
#70 = PLANE ( 'NONE',  #91 ) ;
#71 = CIRCLE ( 'NONE', #179, 2.000000000000000000 ) ;
#72 = DIRECTION ( 'NONE',  ( -0.000000000000000000, -0.000000000000000000, -1.000000000000000000 ) ) ;
#73 = AXIS2_PLACEMENT_3D ( 'NONE', #208, #143, #261 ) ;
#74 = MANIFOLD_SOLID_BREP ( 'Zaoblit1', #43 ) ;
#75 = DIRECTION ( 'NONE',  ( -1.000000000000000000, 0.000000000000000000, 0.000000000000000000 ) ) ;
#76 = CC_DESIGN_PERSON_AND_ORGANIZATION_ASSIGNMENT ( #209, #306, ( #230 ) ) ;
#77 = CARTESIAN_POINT ( 'NONE',  ( -1.100000000000000089, 0.000000000000000000, 2.200000000000007283 ) ) ;
#78 = CARTESIAN_POINT ( 'NONE',  ( 0.000000000000000000, 0.000000000000000000, 2.200000000000007283 ) ) ;
#79 = EDGE_CURVE ( 'NONE', #302, #285, #262, .T. ) ;
#80 = ORIENTED_EDGE ( 'NONE', *, *, #121, .F. ) ;
#81 = CIRCLE ( 'NONE', #32, 2.000000000000000000 ) ;
#82 = EDGE_LOOP ( 'NONE', ( #153, #128 ) ) ;
#83 = CIRCLE ( 'NONE', #225, 1.100000000000000089 ) ;
#84 = EDGE_LOOP ( 'NONE', ( #163, #282, #138, #90 ) ) ;
#85 =( NAMED_UNIT ( * ) PLANE_ANGLE_UNIT ( ) SI_UNIT ( $, .RADIAN. ) );
#86 =( GEOMETRIC_REPRESENTATION_CONTEXT ( 3 ) GLOBAL_UNCERTAINTY_ASSIGNED_CONTEXT ( ( #42 ) ) GLOBAL_UNIT_ASSIGNED_CONTEXT ( ( #252, #85, #9 ) ) REPRESENTATION_CONTEXT ( 'NONE', 'WORKASPACE' ) );
#87 = APPROVAL_STATUS ( 'not_yet_approved' ) ;
#88 = CARTESIAN_POINT ( 'NONE',  ( 0.000000000000000000, 0.000000000000000000, 2.000000000000000000 ) ) ;
#89 = CARTESIAN_POINT ( 'NONE',  ( -2.000000000000000000, 0.000000000000000000, 2.000000000000000000 ) ) ;
#90 = ORIENTED_EDGE ( 'NONE', *, *, #130, .F. ) ;
#91 = AXIS2_PLACEMENT_3D ( 'NONE', #88, #159, #281 ) ;
#92 = APPROVAL_DATE_TIME ( #109, #115 ) ;
#93 = ORIENTED_EDGE ( 'NONE', *, *, #168, .T. ) ;
#94 = ORIENTED_EDGE ( 'NONE', *, *, #147, .F. ) ;
#95 = DIRECTION ( 'NONE',  ( 0.000000000000000000, -1.000000000000000000, 0.000000000000000000 ) ) ;
#96 = DIRECTION ( 'NONE',  ( 0.000000000000000000, 0.000000000000000000, 1.000000000000000000 ) ) ;
#97 = EDGE_CURVE ( 'NONE', #13, #17, #71, .T. ) ;
#98 = DIRECTION ( 'NONE',  ( -1.000000000000000000, 0.000000000000000000, 0.000000000000000000 ) ) ;
#99 = CIRCLE ( 'NONE', #279, 1.100000000000000089 ) ;
#100 = PERSON ( 'NEURÈENÝ', 'NEURÈENÝ', 'NEURÈENÝ', ('NEURÈENÝ'), ('NEURÈENÝ'), ('NEURÈENÝ') ) ;
#101 = CARTESIAN_POINT ( 'NONE',  ( 2.000000000000000000, 2.449293598294706414E-16, 0.000000000000000000 ) ) ;
#102 = ADVANCED_FACE ( 'NONE', ( #263, #47 ), #70, .T. ) ;
#103 = CIRCLE ( 'NONE', #141, 1.300000000000000266 ) ;
#104 = DATE_AND_TIME ( #240, #158 ) ;
#105 = PERSON_AND_ORGANIZATION_ROLE ( 'classification_officer' ) ;
#106 = ORIENTED_EDGE ( 'NONE', *, *, #278, .F. ) ;
#107 = APPROVAL ( #162, 'NEURÈENÝ' ) ;
#108 = DIRECTION ( 'NONE',  ( 1.000000000000000000, 0.000000000000000000, -0.000000000000000000 ) ) ;
#109 = DATE_AND_TIME ( #16, #6 ) ;
#110 = DIRECTION ( 'NONE',  ( -0.000000000000000000, -0.000000000000000000, -1.000000000000000000 ) ) ;
#111 = CIRCLE ( 'NONE', #134, 1.100000000000000089 ) ;
#112 = APPROVAL_PERSON_ORGANIZATION ( #235, #222, #21 ) ;
#113 = COORDINATED_UNIVERSAL_TIME_OFFSET ( 1, 0, .AHEAD. ) ;
#114 = CARTESIAN_POINT ( 'NONE',  ( -1.100000000000000089, 0.000000000000000000, 202.0000000000000000 ) ) ;
#115 = APPROVAL ( #233, 'NEURÈENÝ' ) ;
#116 = AXIS2_PLACEMENT_3D ( 'NONE', #299, #187, #19 ) ;
#117 = APPROVAL_DATE_TIME ( #238, #222 ) ;
#118 = PLANE ( 'NONE',  #191 ) ;
#119 = CYLINDRICAL_SURFACE ( 'NONE', #255, 2.000000000000000000 ) ;
#120 = DIRECTION ( 'NONE',  ( 0.000000000000000000, 0.000000000000000000, 1.000000000000000000 ) ) ;
#121 = EDGE_CURVE ( 'NONE', #48, #173, #293, .T. ) ;
#122 = VECTOR ( 'NONE', #57, 1000.000000000000000 ) ;
#123 = DIRECTION ( 'NONE',  ( -0.000000000000000000, -0.000000000000000000, -1.000000000000000000 ) ) ;
#124 = DIRECTION ( 'NONE',  ( 1.000000000000000000, 0.000000000000000000, 0.000000000000000000 ) ) ;
#125 = CARTESIAN_POINT ( 'NONE',  ( 0.000000000000000000, 0.000000000000000000, 2.200000000000007283 ) ) ;
#126 = PRODUCT ( '4bc1', '4bc1', '', ( #14 ) ) ;
#127 = EDGE_LOOP ( 'NONE', ( #251, #22, #305, #93 ) ) ;
#128 = ORIENTED_EDGE ( 'NONE', *, *, #211, .T. ) ;
#129 = AXIS2_PLACEMENT_3D ( 'NONE', #212, #151, #75 ) ;
#130 = EDGE_CURVE ( 'NONE', #156, #198, #41, .T. ) ;
#131 = ORIENTED_EDGE ( 'NONE', *, *, #97, .T. ) ;
#132 = EDGE_LOOP ( 'NONE', ( #33, #131 ) ) ;
#133 = CALENDAR_DATE ( 2022, 7, 7 ) ;
#134 = AXIS2_PLACEMENT_3D ( 'NONE', #125, #120, #124 ) ;
#135 = ADVANCED_FACE ( 'NONE', ( #239 ), #118, .F. ) ;
#136 = DIRECTION ( 'NONE',  ( 0.000000000000000000, 0.000000000000000000, 1.000000000000000000 ) ) ;
#137 = CARTESIAN_POINT ( 'NONE',  ( 0.000000000000000000, 0.000000000000000000, 0.000000000000000000 ) ) ;
#138 = ORIENTED_EDGE ( 'NONE', *, *, #303, .T. ) ;
#139 = PERSON_AND_ORGANIZATION ( #100, #223 ) ;
#140 = CARTESIAN_POINT ( 'NONE',  ( 0.000000000000000000, 0.000000000000000000, 0.000000000000000000 ) ) ;
#141 = AXIS2_PLACEMENT_3D ( 'NONE', #166, #123, #146 ) ;
#142 = PERSON_AND_ORGANIZATION ( #100, #223 ) ;
#143 = DIRECTION ( 'NONE',  ( 1.224646799147353207E-16, 1.000000000000000000, -0.000000000000000000 ) ) ;
#144 = APPROVAL_ROLE ( '' ) ;
#145 = DIRECTION ( 'NONE',  ( 1.000000000000000000, 0.000000000000000000, 0.000000000000000000 ) ) ;
#146 = DIRECTION ( 'NONE',  ( 1.000000000000000000, 0.000000000000000000, 0.000000000000000000 ) ) ;
#147 = EDGE_CURVE ( 'NONE', #17, #48, #300, .T. ) ;
#148 = DIRECTION ( 'NONE',  ( 1.000000000000000000, 0.000000000000000000, 0.000000000000000000 ) ) ;
#149 = CARTESIAN_POINT ( 'NONE',  ( 1.300000000000000266, 0.000000000000000000, 2.200000000000007283 ) ) ;
#150 = FACE_OUTER_BOUND ( 'NONE', #236, .T. ) ;
#151 = DIRECTION ( 'NONE',  ( -0.000000000000000000, -0.000000000000000000, -1.000000000000000000 ) ) ;
#152 = ORIENTED_EDGE ( 'NONE', *, *, #79, .F. ) ;
#153 = ORIENTED_EDGE ( 'NONE', *, *, #79, .T. ) ;
#154 = LOCAL_TIME ( 12, 34, 14.00000000000000000, #304 ) ;
#155 = ADVANCED_FACE ( 'NONE', ( #217 ), #273, .T. ) ;
#156 = VERTEX_POINT ( 'NONE', #245 ) ;
#157 = DIRECTION ( 'NONE',  ( 1.000000000000000000, 0.000000000000000000, 0.000000000000000000 ) ) ;
#158 = LOCAL_TIME ( 12, 34, 14.00000000000000000, #266 ) ;
#159 = DIRECTION ( 'NONE',  ( 0.000000000000000000, 0.000000000000000000, 1.000000000000000000 ) ) ;
#160 = DIRECTION ( 'NONE',  ( 0.000000000000000000, 0.000000000000000000, 1.000000000000000000 ) ) ;
#161 = ORIENTED_EDGE ( 'NONE', *, *, #303, .F. ) ;
#162 = APPROVAL_STATUS ( 'not_yet_approved' ) ;
#163 = ORIENTED_EDGE ( 'NONE', *, *, #10, .F. ) ;
#164 = DIRECTION ( 'NONE',  ( 0.000000000000000000, 0.000000000000000000, 1.000000000000000000 ) ) ;
#165 = CC_DESIGN_PERSON_AND_ORGANIZATION_ASSIGNMENT ( #12, #105, ( #214 ) ) ;
#166 = CARTESIAN_POINT ( 'NONE',  ( 0.000000000000000000, 0.000000000000000000, 2.000000000000000000 ) ) ;
#167 = DIRECTION ( 'NONE',  ( 0.000000000000000000, 0.000000000000000000, 1.000000000000000000 ) ) ;
#168 = EDGE_CURVE ( 'NONE', #198, #264, #111, .T. ) ;
#169 = DESIGN_CONTEXT ( 'detailed design', #226, 'design' ) ;
#170 = DIRECTION ( 'NONE',  ( 1.000000000000000000, 0.000000000000000000, 0.000000000000000000 ) ) ;
#171 = DIRECTION ( 'NONE',  ( 0.000000000000000000, 0.000000000000000000, 1.000000000000000000 ) ) ;
#172 = ORIENTED_EDGE ( 'NONE', *, *, #232, .F. ) ;
#173 = VERTEX_POINT ( 'NONE', #101 ) ;
#174 = ADVANCED_FACE ( 'NONE', ( #150 ), #249, .T. ) ;
#175 = ORIENTED_EDGE ( 'NONE', *, *, #147, .T. ) ;
#176 = AXIS2_PLACEMENT_3D ( 'NONE', #243, #164, #242 ) ;
#177 = CC_DESIGN_APPROVAL ( #115, ( #185 ) ) ;
#178 = ORIENTED_EDGE ( 'NONE', *, *, #97, .F. ) ;
#179 = AXIS2_PLACEMENT_3D ( 'NONE', #25, #160, #200 ) ;
#180 = CARTESIAN_POINT ( 'NONE',  ( 0.000000000000000000, 0.000000000000000000, 202.0000000000000000 ) ) ;
#181 = DIRECTION ( 'NONE',  ( 1.000000000000000000, 0.000000000000000000, 0.000000000000000000 ) ) ;
#182 = CIRCLE ( 'NONE', #176, 2.000000000000000000 ) ;
#183 = APPROVAL_ROLE ( '' ) ;
#184 = ORIENTED_EDGE ( 'NONE', *, *, #211, .F. ) ;
#185 = PRODUCT_DEFINITION ( 'NEZNÁMÝ', '', #230, #169 ) ;
#186 = CALENDAR_DATE ( 2022, 7, 7 ) ;
#187 = DIRECTION ( 'NONE',  ( -0.000000000000000000, -0.000000000000000000, -1.000000000000000000 ) ) ;
#188 = CARTESIAN_POINT ( 'NONE',  ( 0.000000000000000000, 0.000000000000000000, 202.0000000000000000 ) ) ;
#189 = ADVANCED_FACE ( 'NONE', ( #4 ), #119, .T. ) ;
#190 = DIRECTION ( 'NONE',  ( 0.000000000000000000, 0.000000000000000000, -1.000000000000000000 ) ) ;
#191 = AXIS2_PLACEMENT_3D ( 'NONE', #137, #15, #108 ) ;
#192 = CARTESIAN_POINT ( 'NONE',  ( 1.100000000000000089, 1.347111479062088503E-16, 2.200000000000007283 ) ) ;
#193 = CYLINDRICAL_SURFACE ( 'NONE', #218, 2.000000000000000000 ) ;
#194 = CC_DESIGN_DATE_AND_TIME_ASSIGNMENT ( #61, #49, ( #214 ) ) ;
#195 = DIRECTION ( 'NONE',  ( 1.000000000000000000, 0.000000000000000000, 0.000000000000000000 ) ) ;
#196 = FACE_OUTER_BOUND ( 'NONE', #37, .T. ) ;
#197 = AXIS2_PLACEMENT_3D ( 'NONE', #78, #53, #271 ) ;
#198 = VERTEX_POINT ( 'NONE', #77 ) ;
#199 = COORDINATED_UNIVERSAL_TIME_OFFSET ( 1, 0, .AHEAD. ) ;
#200 = DIRECTION ( 'NONE',  ( 1.000000000000000000, 0.000000000000000000, 0.000000000000000000 ) ) ;
#201 = CIRCLE ( 'NONE', #73, 0.2000000000000000944 ) ;
#202 = CIRCLE ( 'NONE', #8, 1.100000000000000089 ) ;
#203 = EDGE_LOOP ( 'NONE', ( #231, #58, #152, #106 ) ) ;
#204 = PERSON_AND_ORGANIZATION_ROLE ( 'creator' ) ;
#205 = ORIENTED_EDGE ( 'NONE', *, *, #10, .T. ) ;
#206 = VECTOR ( 'NONE', #27, 1000.000000000000000 ) ;
#207 = COORDINATED_UNIVERSAL_TIME_OFFSET ( 1, 0, .AHEAD. ) ;
#208 = CARTESIAN_POINT ( 'NONE',  ( -1.300000000000000266, 1.592040838891559342E-16, 2.200000000000007283 ) ) ;
#209 = PERSON_AND_ORGANIZATION ( #100, #223 ) ;
#210 = ORIENTED_EDGE ( 'NONE', *, *, #270, .T. ) ;
#211 = EDGE_CURVE ( 'NONE', #285, #302, #103, .T. ) ;
#212 = CARTESIAN_POINT ( 'NONE',  ( 0.000000000000000000, 0.000000000000000000, 202.0000000000000000 ) ) ;
#213 = APPROVAL_DATE_TIME ( #104, #107 ) ;
#214 = SECURITY_CLASSIFICATION ( '', '', #228 ) ;
#215 = CARTESIAN_POINT ( 'NONE',  ( 0.000000000000000000, 0.000000000000000000, 2.000000000000000000 ) ) ;
#216 = CARTESIAN_POINT ( 'NONE',  ( 1.100000000000000089, 1.347111479062088503E-16, 202.0000000000000000 ) ) ;
#217 = FACE_OUTER_BOUND ( 'NONE', #127, .T. ) ;
#218 = AXIS2_PLACEMENT_3D ( 'NONE', #215, #3, #269 ) ;
#219 = CARTESIAN_POINT ( 'NONE',  ( -1.300000000000000266, 1.592040838891559342E-16, 2.000000000000003553 ) ) ;
#220 = PRODUCT_DEFINITION_SHAPE ( 'NONE', 'NONE',  #185 ) ;
#221 = AXIS2_PLACEMENT_3D ( 'NONE', #140, #286, #157 ) ;
#222 = APPROVAL ( #87, 'NEURÈENÝ' ) ;
#223 = ORGANIZATION ( 'NEURÈENÝ', 'NEURÈENÝ', '' ) ;
#224 = ORIENTED_EDGE ( 'NONE', *, *, #278, .T. ) ;
#225 = AXIS2_PLACEMENT_3D ( 'NONE', #180, #45, #145 ) ;
#226 = APPLICATION_CONTEXT ( 'configuration controlled 3d designs of mechanical parts and assemblies' ) ;
#227 = ORIENTED_EDGE ( 'NONE', *, *, #275, .F. ) ;
#228 = SECURITY_CLASSIFICATION_LEVEL ( 'unclassified' ) ;
#229 = ORIENTED_EDGE ( 'NONE', *, *, #121, .T. ) ;
#230 = PRODUCT_DEFINITION_FORMATION_WITH_SPECIFIED_SOURCE ( 'LIBOVOLNÝ', '', #126, .NOT_KNOWN. ) ;
#231 = ORIENTED_EDGE ( 'NONE', *, *, #168, .F. ) ;
#232 = EDGE_CURVE ( 'NONE', #17, #13, #182, .T. ) ;
#233 = APPROVAL_STATUS ( 'not_yet_approved' ) ;
#234 = DIRECTION ( 'NONE',  ( 0.000000000000000000, 0.000000000000000000, 1.000000000000000000 ) ) ;
#235 = PERSON_AND_ORGANIZATION ( #100, #223 ) ;
#236 = EDGE_LOOP ( 'NONE', ( #277, #205 ) ) ;
#237 = APPROVAL_PERSON_ORGANIZATION ( #64, #115, #183 ) ;
#238 = DATE_AND_TIME ( #186, #154 ) ;
#239 = FACE_OUTER_BOUND ( 'NONE', #256, .T. ) ;
#240 = CALENDAR_DATE ( 2022, 7, 7 ) ;
#241 = FACE_OUTER_BOUND ( 'NONE', #84, .T. ) ;
#242 = DIRECTION ( 'NONE',  ( 1.000000000000000000, 0.000000000000000000, 0.000000000000000000 ) ) ;
#243 = CARTESIAN_POINT ( 'NONE',  ( 0.000000000000000000, 0.000000000000000000, 2.000000000000000000 ) ) ;
#244 = EDGE_CURVE ( 'NONE', #253, #264, #246, .T. ) ;
#245 = CARTESIAN_POINT ( 'NONE',  ( -1.100000000000000089, 0.000000000000000000, 202.0000000000000000 ) ) ;
#246 = LINE ( 'NONE', #216, #206 ) ;
#247 = APPLICATION_CONTEXT ( 'configuration controlled 3d designs of mechanical parts and assemblies' ) ;
#248 = LOCAL_TIME ( 12, 34, 14.00000000000000000, #199 ) ;
#249 = PLANE ( 'NONE',  #36 ) ;
#250 = ADVANCED_FACE ( 'NONE', ( #55 ), #291, .F. ) ;
#251 = ORIENTED_EDGE ( 'NONE', *, *, #244, .F. ) ;
#252 =( LENGTH_UNIT ( ) NAMED_UNIT ( * ) SI_UNIT ( .MILLI., .METRE. ) );
#253 = VERTEX_POINT ( 'NONE', #274 ) ;
#254 = ADVANCED_FACE ( 'NONE', ( #268 ), #193, .T. ) ;
#255 = AXIS2_PLACEMENT_3D ( 'NONE', #30, #72, #98 ) ;
#256 = EDGE_LOOP ( 'NONE', ( #80, #35 ) ) ;
#257 = PERSON_AND_ORGANIZATION ( #100, #223 ) ;
#258 = CARTESIAN_POINT ( 'NONE',  ( 2.000000000000000000, 2.449293598294706414E-16, 2.000000000000000000 ) ) ;
#259 = TOROIDAL_SURFACE ( 'NONE', #197, 1.300000000000000266, 0.2000000000000000111 ) ;
#260 = CC_DESIGN_PERSON_AND_ORGANIZATION_ASSIGNMENT ( #142, #204, ( #185 ) ) ;
#261 = DIRECTION ( 'NONE',  ( -1.000000000000000000, 1.224646799147353207E-16, 0.000000000000000000 ) ) ;
#262 = CIRCLE ( 'NONE', #116, 1.300000000000000266 ) ;
#263 = FACE_BOUND ( 'NONE', #82, .T. ) ;
#264 = VERTEX_POINT ( 'NONE', #192 ) ;
#265 = CC_DESIGN_SECURITY_CLASSIFICATION ( #214, ( #230 ) ) ;
#266 = COORDINATED_UNIVERSAL_TIME_OFFSET ( 1, 0, .AHEAD. ) ;
#267 = EDGE_LOOP ( 'NONE', ( #178, #39, #210, #94 ) ) ;
#268 = FACE_OUTER_BOUND ( 'NONE', #267, .T. ) ;
#269 = DIRECTION ( 'NONE',  ( -1.000000000000000000, 0.000000000000000000, 0.000000000000000000 ) ) ;
#270 = EDGE_CURVE ( 'NONE', #173, #48, #81, .T. ) ;
#271 = DIRECTION ( 'NONE',  ( 1.000000000000000000, 0.000000000000000000, 0.000000000000000000 ) ) ;
#272 = VECTOR ( 'NONE', #68, 1000.000000000000000 ) ;
#273 = CYLINDRICAL_SURFACE ( 'NONE', #129, 1.100000000000000089 ) ;
#274 = CARTESIAN_POINT ( 'NONE',  ( 1.100000000000000089, 1.347111479062088503E-16, 202.0000000000000000 ) ) ;
#275 = EDGE_CURVE ( 'NONE', #13, #173, #289, .T. ) ;
#276 = APPLICATION_PROTOCOL_DEFINITION ( 'international standard', 'config_control_design', 1994, #247 ) ;
#277 = ORIENTED_EDGE ( 'NONE', *, *, #66, .T. ) ;
#278 = EDGE_CURVE ( 'NONE', #264, #302, #28, .T. ) ;
#279 = AXIS2_PLACEMENT_3D ( 'NONE', #294, #171, #148 ) ;
#280 = CALENDAR_DATE ( 2022, 7, 7 ) ;
#281 = DIRECTION ( 'NONE',  ( 1.000000000000000000, 0.000000000000000000, -0.000000000000000000 ) ) ;
#282 = ORIENTED_EDGE ( 'NONE', *, *, #244, .T. ) ;
#283 = AXIS2_PLACEMENT_3D ( 'NONE', #18, #136, #44 ) ;
#284 = DATE_TIME_ROLE ( 'creation_date' ) ;
#285 = VERTEX_POINT ( 'NONE', #219 ) ;
#286 = DIRECTION ( 'NONE',  ( 0.000000000000000000, 0.000000000000000000, 1.000000000000000000 ) ) ;
#287 = APPLICATION_PROTOCOL_DEFINITION ( 'international standard', 'config_control_design', 1994, #226 ) ;
#288 = CARTESIAN_POINT ( 'NONE',  ( 0.000000000000000000, 0.000000000000000000, 202.0000000000000000 ) ) ;
#289 = LINE ( 'NONE', #292, #297 ) ;
#290 = CARTESIAN_POINT ( 'NONE',  ( 0.000000000000000000, 0.000000000000000000, 0.000000000000000000 ) ) ;
#291 = TOROIDAL_SURFACE ( 'NONE', #40, 1.300000000000000266, 0.2000000000000000111 ) ;
#292 = CARTESIAN_POINT ( 'NONE',  ( 2.000000000000000000, 2.449293598294706414E-16, 2.000000000000000000 ) ) ;
#293 = CIRCLE ( 'NONE', #221, 2.000000000000000000 ) ;
#294 = CARTESIAN_POINT ( 'NONE',  ( 0.000000000000000000, 0.000000000000000000, 2.200000000000007283 ) ) ;
#295 = APPROVAL_PERSON_ORGANIZATION ( #24, #107, #144 ) ;
#296 = ADVANCED_FACE ( 'NONE', ( #196 ), #259, .F. ) ;
#297 = VECTOR ( 'NONE', #1, 1000.000000000000000 ) ;
#298 = DATE_AND_TIME ( #133, #63 ) ;
#299 = CARTESIAN_POINT ( 'NONE',  ( 0.000000000000000000, 0.000000000000000000, 2.000000000000000000 ) ) ;
#300 = LINE ( 'NONE', #89, #122 ) ;
#301 = PERSON_AND_ORGANIZATION_ROLE ( 'design_owner' ) ;
#302 = VERTEX_POINT ( 'NONE', #31 ) ;
#303 = EDGE_CURVE ( 'NONE', #264, #198, #99, .T. ) ;
#304 = COORDINATED_UNIVERSAL_TIME_OFFSET ( 1, 0, .AHEAD. ) ;
#305 = ORIENTED_EDGE ( 'NONE', *, *, #130, .T. ) ;
#306 = PERSON_AND_ORGANIZATION_ROLE ( 'creator' ) ;
#307 = CYLINDRICAL_SURFACE ( 'NONE', #56, 1.100000000000000089 ) ;
ENDSEC;
END-ISO-10303-21;
