ISO-10303-21;
HEADER;
FILE_DESCRIPTION (( 'STEP AP203' ),
    '1' );
FILE_NAME ('7571.STEP',
    '2023-02-12T10:06:25',
    ( '' ),
    ( '' ),
    'SwSTEP 2.0',
    'SolidWorks 2019',
    '' );
FILE_SCHEMA (( 'CONFIG_CONTROL_DESIGN' ));
ENDSEC;

DATA;
#1 = CC_DESIGN_DATE_AND_TIME_ASSIGNMENT ( #113, #186, ( #138 ) ) ;
#2 = DIRECTION ( 'NONE',  ( -0.000000000000000000, -0.000000000000000000, -1.000000000000000000 ) ) ;
#3 = DIRECTION ( 'NONE',  ( -0.000000000000000000, -0.000000000000000000, -1.000000000000000000 ) ) ;
#4 = CC_DESIGN_PERSON_AND_ORGANIZATION_ASSIGNMENT ( #133, #78, ( #226 ) ) ;
#5 = MANIFOLD_SOLID_BREP ( 'Pøidat vysunutím3', #160 ) ;
#6 =( NAMED_UNIT ( * ) SI_UNIT ( $, .STERADIAN. ) SOLID_ANGLE_UNIT ( ) );
#7 = VERTEX_POINT ( 'NONE', #171 ) ;
#8 = CALENDAR_DATE ( 2023, 12, 2 ) ;
#9 = CALENDAR_DATE ( 2023, 12, 2 ) ;
#10 = PERSON_AND_ORGANIZATION_ROLE ( 'design_supplier' ) ;
#11 = CARTESIAN_POINT ( 'NONE',  ( 16.00000000000000000, 1.959434878635765131E-15, 10.00000000000000000 ) ) ;
#12 = ADVANCED_FACE ( 'NONE', ( #14 ), #130, .F. ) ;
#13 = APPROVAL_ROLE ( '' ) ;
#14 = FACE_OUTER_BOUND ( 'NONE', #39, .T. ) ;
#15 = PERSON ( 'NEURÈENÝ', 'NEURÈENÝ', 'NEURÈENÝ', ('NEURÈENÝ'), ('NEURÈENÝ'), ('NEURÈENÝ') ) ;
#16 = AXIS2_PLACEMENT_3D ( 'NONE', #227, #58, #194 ) ;
#17 = CARTESIAN_POINT ( 'NONE',  ( 0.000000000000000000, 0.000000000000000000, 630.0000000000000000 ) ) ;
#18 = SECURITY_CLASSIFICATION_LEVEL ( 'unclassified' ) ;
#19 = ORIENTED_EDGE ( 'NONE', *, *, #129, .F. ) ;
#20 = ORIENTED_EDGE ( 'NONE', *, *, #98, .T. ) ;
#21 = AXIS2_PLACEMENT_3D ( 'NONE', #178, #218, #54 ) ;
#22 = FACE_OUTER_BOUND ( 'NONE', #31, .T. ) ;
#23 = DIRECTION ( 'NONE',  ( 0.000000000000000000, 0.000000000000000000, 1.000000000000000000 ) ) ;
#24 = EDGE_CURVE ( 'NONE', #119, #7, #231, .T. ) ;
#25 = DIRECTION ( 'NONE',  ( 0.000000000000000000, 0.000000000000000000, 1.000000000000000000 ) ) ;
#26 = VECTOR ( 'NONE', #97, 1000.000000000000000 ) ;
#27 = CYLINDRICAL_SURFACE ( 'NONE', #21, 16.00000000000000000 ) ;
#28 = ORIENTED_EDGE ( 'NONE', *, *, #90, .F. ) ;
#29 = LOCAL_TIME ( 11, 6, 25.00000000000000000, #246 ) ;
#30 = CARTESIAN_POINT ( 'NONE',  ( -20.00000000000000000, 0.000000000000000000, 10.00000000000000000 ) ) ;
#31 = EDGE_LOOP ( 'NONE', ( #128, #154 ) ) ;
#32 = APPROVAL_DATE_TIME ( #73, #40 ) ;
#33 = LOCAL_TIME ( 11, 6, 25.00000000000000000, #75 ) ;
#34 = APPROVAL ( #36, 'NEURÈENÝ' ) ;
#35 = ORIENTED_EDGE ( 'NONE', *, *, #56, .F. ) ;
#36 = APPROVAL_STATUS ( 'not_yet_approved' ) ;
#37 = DIRECTION ( 'NONE',  ( 1.000000000000000000, 0.000000000000000000, 0.000000000000000000 ) ) ;
#38 = ORIENTED_EDGE ( 'NONE', *, *, #98, .F. ) ;
#39 = EDGE_LOOP ( 'NONE', ( #252, #222 ) ) ;
#40 = APPROVAL ( #108, 'NEURÈENÝ' ) ;
#41 = DIRECTION ( 'NONE',  ( 0.000000000000000000, 0.000000000000000000, 1.000000000000000000 ) ) ;
#42 = EDGE_CURVE ( 'NONE', #157, #96, #225, .T. ) ;
#43 = CARTESIAN_POINT ( 'NONE',  ( -20.00000000000000000, 0.000000000000000000, 0.000000000000000000 ) ) ;
#44 = CARTESIAN_POINT ( 'NONE',  ( -20.00000000000000000, 0.000000000000000000, 10.00000000000000000 ) ) ;
#45 = AXIS2_PLACEMENT_3D ( 'NONE', #126, #167, #48 ) ;
#46 = DIRECTION ( 'NONE',  ( 0.000000000000000000, 0.000000000000000000, 1.000000000000000000 ) ) ;
#47 = PRODUCT_DEFINITION ( 'NEZNÁMÝ', '', #226, #61 ) ;
#48 = DIRECTION ( 'NONE',  ( 1.000000000000000000, 0.000000000000000000, 0.000000000000000000 ) ) ;
#49 = CARTESIAN_POINT ( 'NONE',  ( 20.00000000000000000, 2.449293598294706513E-15, 10.00000000000000000 ) ) ;
#50 = ORIENTED_EDGE ( 'NONE', *, *, #24, .T. ) ;
#51 = VECTOR ( 'NONE', #212, 1000.000000000000000 ) ;
#52 = CC_DESIGN_DATE_AND_TIME_ASSIGNMENT ( #244, #216, ( #47 ) ) ;
#53 = ORIENTED_EDGE ( 'NONE', *, *, #42, .T. ) ;
#54 = DIRECTION ( 'NONE',  ( -1.000000000000000000, 0.000000000000000000, 0.000000000000000000 ) ) ;
#55 = PERSON_AND_ORGANIZATION ( #15, #250 ) ;
#56 = EDGE_CURVE ( 'NONE', #96, #157, #88, .T. ) ;
#57 = DIRECTION ( 'NONE',  ( 0.000000000000000000, 0.000000000000000000, 1.000000000000000000 ) ) ;
#58 = DIRECTION ( 'NONE',  ( 0.000000000000000000, 0.000000000000000000, 1.000000000000000000 ) ) ;
#59 = CARTESIAN_POINT ( 'NONE',  ( 0.000000000000000000, 0.000000000000000000, 0.000000000000000000 ) ) ;
#60 = LINE ( 'NONE', #82, #26 ) ;
#61 = DESIGN_CONTEXT ( 'detailed design', #93, 'design' ) ;
#62 = AXIS2_PLACEMENT_3D ( 'NONE', #214, #3, #235 ) ;
#63 = PERSON_AND_ORGANIZATION ( #15, #250 ) ;
#64 = FACE_OUTER_BOUND ( 'NONE', #228, .T. ) ;
#65 = CC_DESIGN_APPROVAL ( #34, ( #138 ) ) ;
#66 = CYLINDRICAL_SURFACE ( 'NONE', #76, 20.00000000000000000 ) ;
#67 = ADVANCED_FACE ( 'NONE', ( #64 ), #115, .T. ) ;
#68 = DIRECTION ( 'NONE',  ( 1.000000000000000000, 0.000000000000000000, 0.000000000000000000 ) ) ;
#69 = FACE_OUTER_BOUND ( 'NONE', #204, .T. ) ;
#70 = FACE_BOUND ( 'NONE', #183, .T. ) ;
#71 = EDGE_CURVE ( 'NONE', #251, #157, #60, .T. ) ;
#72 = ORIENTED_EDGE ( 'NONE', *, *, #165, .F. ) ;
#73 = DATE_AND_TIME ( #164, #33 ) ;
#74 = UNCERTAINTY_MEASURE_WITH_UNIT (LENGTH_MEASURE( 1.000000000000000082E-05 ), #92, 'distance_accuracy_value', 'NONE');
#75 = COORDINATED_UNIVERSAL_TIME_OFFSET ( 1, 0, .AHEAD. ) ;
#76 = AXIS2_PLACEMENT_3D ( 'NONE', #193, #2, #237 ) ;
#77 = LINE ( 'NONE', #217, #232 ) ;
#78 = PERSON_AND_ORGANIZATION_ROLE ( 'creator' ) ;
#79 = ORIENTED_EDGE ( 'NONE', *, *, #124, .T. ) ;
#80 = APPLICATION_CONTEXT ( 'configuration controlled 3d designs of mechanical parts and assemblies' ) ;
#81 = COORDINATED_UNIVERSAL_TIME_OFFSET ( 1, 0, .AHEAD. ) ;
#82 = CARTESIAN_POINT ( 'NONE',  ( -16.00000000000000000, 0.000000000000000000, 630.0000000000000000 ) ) ;
#83 = EDGE_LOOP ( 'NONE', ( #84, #20 ) ) ;
#84 = ORIENTED_EDGE ( 'NONE', *, *, #90, .T. ) ;
#85 = APPROVAL_ROLE ( '' ) ;
#86 = DIRECTION ( 'NONE',  ( 1.000000000000000000, 0.000000000000000000, 0.000000000000000000 ) ) ;
#87 = CC_DESIGN_PERSON_AND_ORGANIZATION_ASSIGNMENT ( #110, #144, ( #47 ) ) ;
#88 = CIRCLE ( 'NONE', #254, 16.00000000000000000 ) ;
#89 = CARTESIAN_POINT ( 'NONE',  ( 0.000000000000000000, 0.000000000000000000, 10.00000000000000000 ) ) ;
#90 = EDGE_CURVE ( 'NONE', #251, #102, #248, .T. ) ;
#91 = CARTESIAN_POINT ( 'NONE',  ( 20.00000000000000000, 2.449293598294706513E-15, 10.00000000000000000 ) ) ;
#92 =( LENGTH_UNIT ( ) NAMED_UNIT ( * ) SI_UNIT ( .MILLI., .METRE. ) );
#93 = APPLICATION_CONTEXT ( 'configuration controlled 3d designs of mechanical parts and assemblies' ) ;
#94 = CARTESIAN_POINT ( 'NONE',  ( -16.00000000000000000, 0.000000000000000000, 10.00000000000000000 ) ) ;
#95 = ADVANCED_FACE ( 'NONE', ( #153 ), #187, .T. ) ;
#96 = VERTEX_POINT ( 'NONE', #11 ) ;
#97 = DIRECTION ( 'NONE',  ( -0.000000000000000000, -0.000000000000000000, -1.000000000000000000 ) ) ;
#98 = EDGE_CURVE ( 'NONE', #102, #251, #199, .T. ) ;
#99 = EDGE_LOOP ( 'NONE', ( #19, #255, #79, #220 ) ) ;
#100 = DIRECTION ( 'NONE',  ( 1.000000000000000000, 0.000000000000000000, -0.000000000000000000 ) ) ;
#101 = EDGE_CURVE ( 'NONE', #202, #7, #213, .T. ) ;
#102 = VERTEX_POINT ( 'NONE', #123 ) ;
#103 = ADVANCED_FACE ( 'NONE', ( #70, #22 ), #163, .T. ) ;
#104 = CIRCLE ( 'NONE', #243, 20.00000000000000000 ) ;
#105 = FACE_OUTER_BOUND ( 'NONE', #125, .T. ) ;
#106 = ADVANCED_FACE ( 'NONE', ( #140 ), #66, .T. ) ;
#107 = DIRECTION ( 'NONE',  ( -0.000000000000000000, -0.000000000000000000, -1.000000000000000000 ) ) ;
#108 = APPROVAL_STATUS ( 'not_yet_approved' ) ;
#109 = EDGE_CURVE ( 'NONE', #149, #202, #242, .T. ) ;
#110 = PERSON_AND_ORGANIZATION ( #15, #250 ) ;
#111 = DIRECTION ( 'NONE',  ( 1.000000000000000000, 0.000000000000000000, 0.000000000000000000 ) ) ;
#112 = DIRECTION ( 'NONE',  ( 0.000000000000000000, 0.000000000000000000, 1.000000000000000000 ) ) ;
#113 = DATE_AND_TIME ( #131, #29 ) ;
#114 = AXIS2_PLACEMENT_3D ( 'NONE', #196, #161, #215 ) ;
#115 = CYLINDRICAL_SURFACE ( 'NONE', #137, 20.00000000000000000 ) ;
#116 = DATE_AND_TIME ( #9, #168 ) ;
#117 = ORIENTED_EDGE ( 'NONE', *, *, #71, .T. ) ;
#118 = PERSON_AND_ORGANIZATION ( #15, #250 ) ;
#119 = VERTEX_POINT ( 'NONE', #43 ) ;
#120 = AXIS2_PLACEMENT_3D ( 'NONE', #207, #112, #210 ) ;
#121 = APPROVAL_PERSON_ORGANIZATION ( #197, #179, #85 ) ;
#122 = CARTESIAN_POINT ( 'NONE',  ( 0.000000000000000000, 0.000000000000000000, 0.000000000000000000 ) ) ;
#123 = CARTESIAN_POINT ( 'NONE',  ( 16.00000000000000000, 1.959434878635765131E-15, 630.0000000000000000 ) ) ;
#124 = EDGE_CURVE ( 'NONE', #7, #119, #104, .T. ) ;
#125 = EDGE_LOOP ( 'NONE', ( #72, #28, #117, #53 ) ) ;
#126 = CARTESIAN_POINT ( 'NONE',  ( 0.000000000000000000, 0.000000000000000000, 0.000000000000000000 ) ) ;
#127 = CC_DESIGN_APPROVAL ( #40, ( #47 ) ) ;
#128 = ORIENTED_EDGE ( 'NONE', *, *, #109, .T. ) ;
#129 = EDGE_CURVE ( 'NONE', #202, #149, #203, .T. ) ;
#130 = PLANE ( 'NONE',  #150 ) ;
#131 = CALENDAR_DATE ( 2023, 12, 2 ) ;
#132 = DIRECTION ( 'NONE',  ( 0.000000000000000000, 0.000000000000000000, 1.000000000000000000 ) ) ;
#133 = PERSON_AND_ORGANIZATION ( #15, #250 ) ;
#134 = DIRECTION ( 'NONE',  ( 1.000000000000000000, 0.000000000000000000, -0.000000000000000000 ) ) ;
#135 = AXIS2_PLACEMENT_3D ( 'NONE', #139, #25, #238 ) ;
#136 = ORIENTED_EDGE ( 'NONE', *, *, #42, .F. ) ;
#137 = AXIS2_PLACEMENT_3D ( 'NONE', #155, #230, #224 ) ;
#138 = SECURITY_CLASSIFICATION ( '', '', #18 ) ;
#139 = CARTESIAN_POINT ( 'NONE',  ( 0.000000000000000000, 0.000000000000000000, 10.00000000000000000 ) ) ;
#140 = FACE_OUTER_BOUND ( 'NONE', #99, .T. ) ;
#141 = ADVANCED_FACE ( 'NONE', ( #69 ), #177, .T. ) ;
#142 = APPROVAL_PERSON_ORGANIZATION ( #55, #40, #182 ) ;
#143 = COORDINATED_UNIVERSAL_TIME_OFFSET ( 1, 0, .AHEAD. ) ;
#144 = PERSON_AND_ORGANIZATION_ROLE ( 'creator' ) ;
#145 = DIRECTION ( 'NONE',  ( -0.000000000000000000, -0.000000000000000000, -1.000000000000000000 ) ) ;
#146 = PERSON_AND_ORGANIZATION_ROLE ( 'design_owner' ) ;
#147 = CARTESIAN_POINT ( 'NONE',  ( -16.00000000000000000, 0.000000000000000000, 630.0000000000000000 ) ) ;
#148 = SHAPE_DEFINITION_REPRESENTATION ( #236, #221 ) ;
#149 = VERTEX_POINT ( 'NONE', #44 ) ;
#150 = AXIS2_PLACEMENT_3D ( 'NONE', #59, #132, #100 ) ;
#151 = DATE_AND_TIME ( #206, #152 ) ;
#152 = LOCAL_TIME ( 11, 6, 25.00000000000000000, #229 ) ;
#153 = FACE_OUTER_BOUND ( 'NONE', #83, .T. ) ;
#154 = ORIENTED_EDGE ( 'NONE', *, *, #129, .T. ) ;
#155 = CARTESIAN_POINT ( 'NONE',  ( 0.000000000000000000, 0.000000000000000000, 10.00000000000000000 ) ) ;
#156 = AXIS2_PLACEMENT_3D ( 'NONE', #176, #253, #111 ) ;
#157 = VERTEX_POINT ( 'NONE', #94 ) ;
#158 =( GEOMETRIC_REPRESENTATION_CONTEXT ( 3 ) GLOBAL_UNCERTAINTY_ASSIGNED_CONTEXT ( ( #74 ) ) GLOBAL_UNIT_ASSIGNED_CONTEXT ( ( #92, #180, #6 ) ) REPRESENTATION_CONTEXT ( 'NONE', 'WORKASPACE' ) );
#159 = EDGE_CURVE ( 'NONE', #149, #119, #198, .T. ) ;
#160 = CLOSED_SHELL ( 'NONE', ( #141, #106, #67, #103, #12, #234, #95 ) ) ;
#161 = DIRECTION ( 'NONE',  ( 0.000000000000000000, 0.000000000000000000, 1.000000000000000000 ) ) ;
#162 = DIRECTION ( 'NONE',  ( 1.000000000000000000, 0.000000000000000000, 0.000000000000000000 ) ) ;
#163 = PLANE ( 'NONE',  #114 ) ;
#164 = CALENDAR_DATE ( 2023, 12, 2 ) ;
#165 = EDGE_CURVE ( 'NONE', #102, #96, #77, .T. ) ;
#166 = PERSON_AND_ORGANIZATION ( #15, #250 ) ;
#167 = DIRECTION ( 'NONE',  ( 0.000000000000000000, 0.000000000000000000, 1.000000000000000000 ) ) ;
#168 = LOCAL_TIME ( 11, 6, 25.00000000000000000, #81 ) ;
#169 = PRODUCT_RELATED_PRODUCT_CATEGORY ( 'detail', '', ( #205 ) ) ;
#170 = PERSON_AND_ORGANIZATION_ROLE ( 'classification_officer' ) ;
#171 = CARTESIAN_POINT ( 'NONE',  ( 20.00000000000000000, 2.449293598294706513E-15, 0.000000000000000000 ) ) ;
#172 = AXIS2_PLACEMENT_3D ( 'NONE', #174, #41, #37 ) ;
#173 = CC_DESIGN_APPROVAL ( #179, ( #226 ) ) ;
#174 = CARTESIAN_POINT ( 'NONE',  ( 0.000000000000000000, 0.000000000000000000, 630.0000000000000000 ) ) ;
#175 = ORIENTED_EDGE ( 'NONE', *, *, #56, .T. ) ;
#176 = CARTESIAN_POINT ( 'NONE',  ( 0.000000000000000000, 0.000000000000000000, 0.000000000000000000 ) ) ;
#177 = CYLINDRICAL_SURFACE ( 'NONE', #62, 16.00000000000000000 ) ;
#178 = CARTESIAN_POINT ( 'NONE',  ( 0.000000000000000000, 0.000000000000000000, 630.0000000000000000 ) ) ;
#179 = APPROVAL ( #245, 'NEURÈENÝ' ) ;
#180 =( NAMED_UNIT ( * ) PLANE_ANGLE_UNIT ( ) SI_UNIT ( $, .RADIAN. ) );
#181 = ORIENTED_EDGE ( 'NONE', *, *, #109, .F. ) ;
#182 = APPROVAL_ROLE ( '' ) ;
#183 = EDGE_LOOP ( 'NONE', ( #136, #35 ) ) ;
#184 = APPROVAL_DATE_TIME ( #151, #179 ) ;
#185 = ORIENTED_EDGE ( 'NONE', *, *, #71, .F. ) ;
#186 = DATE_TIME_ROLE ( 'classification_date' ) ;
#187 = PLANE ( 'NONE',  #219 ) ;
#188 = CC_DESIGN_SECURITY_CLASSIFICATION ( #138, ( #226 ) ) ;
#189 = APPROVAL_DATE_TIME ( #116, #34 ) ;
#190 = ORIENTED_EDGE ( 'NONE', *, *, #101, .F. ) ;
#191 = ORIENTED_EDGE ( 'NONE', *, *, #165, .T. ) ;
#192 = LOCAL_TIME ( 11, 6, 25.00000000000000000, #143 ) ;
#193 = CARTESIAN_POINT ( 'NONE',  ( 0.000000000000000000, 0.000000000000000000, 10.00000000000000000 ) ) ;
#194 = DIRECTION ( 'NONE',  ( 1.000000000000000000, 0.000000000000000000, 0.000000000000000000 ) ) ;
#195 = VECTOR ( 'NONE', #145, 1000.000000000000000 ) ;
#196 = CARTESIAN_POINT ( 'NONE',  ( 0.000000000000000000, 0.000000000000000000, 10.00000000000000000 ) ) ;
#197 = PERSON_AND_ORGANIZATION ( #15, #250 ) ;
#198 = LINE ( 'NONE', #30, #195 ) ;
#199 = CIRCLE ( 'NONE', #16, 16.00000000000000000 ) ;
#200 = APPROVAL_PERSON_ORGANIZATION ( #118, #34, #13 ) ;
#201 = APPLICATION_PROTOCOL_DEFINITION ( 'international standard', 'config_control_design', 1994, #80 ) ;
#202 = VERTEX_POINT ( 'NONE', #49 ) ;
#203 = CIRCLE ( 'NONE', #135, 20.00000000000000000 ) ;
#204 = EDGE_LOOP ( 'NONE', ( #38, #191, #175, #185 ) ) ;
#205 = PRODUCT ( '7571', '7571', '', ( #239 ) ) ;
#206 = CALENDAR_DATE ( 2023, 12, 2 ) ;
#207 = CARTESIAN_POINT ( 'NONE',  ( 0.000000000000000000, 0.000000000000000000, 10.00000000000000000 ) ) ;
#208 = DIRECTION ( 'NONE',  ( 0.000000000000000000, 0.000000000000000000, 1.000000000000000000 ) ) ;
#209 = AXIS2_PLACEMENT_3D ( 'NONE', #89, #46, #68 ) ;
#210 = DIRECTION ( 'NONE',  ( 1.000000000000000000, 0.000000000000000000, 0.000000000000000000 ) ) ;
#211 = CC_DESIGN_PERSON_AND_ORGANIZATION_ASSIGNMENT ( #223, #170, ( #138 ) ) ;
#212 = DIRECTION ( 'NONE',  ( -0.000000000000000000, -0.000000000000000000, -1.000000000000000000 ) ) ;
#213 = LINE ( 'NONE', #91, #51 ) ;
#214 = CARTESIAN_POINT ( 'NONE',  ( 0.000000000000000000, 0.000000000000000000, 630.0000000000000000 ) ) ;
#215 = DIRECTION ( 'NONE',  ( 1.000000000000000000, 0.000000000000000000, -0.000000000000000000 ) ) ;
#216 = DATE_TIME_ROLE ( 'creation_date' ) ;
#217 = CARTESIAN_POINT ( 'NONE',  ( 16.00000000000000000, 1.959434878635765131E-15, 630.0000000000000000 ) ) ;
#218 = DIRECTION ( 'NONE',  ( -0.000000000000000000, -0.000000000000000000, -1.000000000000000000 ) ) ;
#219 = AXIS2_PLACEMENT_3D ( 'NONE', #17, #57, #134 ) ;
#220 = ORIENTED_EDGE ( 'NONE', *, *, #159, .F. ) ;
#221 = ADVANCED_BREP_SHAPE_REPRESENTATION ( '7571', ( #5, #45 ), #158 ) ;
#222 = ORIENTED_EDGE ( 'NONE', *, *, #124, .F. ) ;
#223 = PERSON_AND_ORGANIZATION ( #15, #250 ) ;
#224 = DIRECTION ( 'NONE',  ( -1.000000000000000000, 0.000000000000000000, 0.000000000000000000 ) ) ;
#225 = CIRCLE ( 'NONE', #120, 16.00000000000000000 ) ;
#226 = PRODUCT_DEFINITION_FORMATION_WITH_SPECIFIED_SOURCE ( 'LIBOVOLNÝ', '', #205, .NOT_KNOWN. ) ;
#227 = CARTESIAN_POINT ( 'NONE',  ( 0.000000000000000000, 0.000000000000000000, 630.0000000000000000 ) ) ;
#228 = EDGE_LOOP ( 'NONE', ( #190, #181, #233, #50 ) ) ;
#229 = COORDINATED_UNIVERSAL_TIME_OFFSET ( 1, 0, .AHEAD. ) ;
#230 = DIRECTION ( 'NONE',  ( -0.000000000000000000, -0.000000000000000000, -1.000000000000000000 ) ) ;
#231 = CIRCLE ( 'NONE', #156, 20.00000000000000000 ) ;
#232 = VECTOR ( 'NONE', #107, 1000.000000000000000 ) ;
#233 = ORIENTED_EDGE ( 'NONE', *, *, #159, .T. ) ;
#234 = ADVANCED_FACE ( 'NONE', ( #105 ), #27, .T. ) ;
#235 = DIRECTION ( 'NONE',  ( -1.000000000000000000, 0.000000000000000000, 0.000000000000000000 ) ) ;
#236 = PRODUCT_DEFINITION_SHAPE ( 'NONE', 'NONE',  #47 ) ;
#237 = DIRECTION ( 'NONE',  ( -1.000000000000000000, 0.000000000000000000, 0.000000000000000000 ) ) ;
#238 = DIRECTION ( 'NONE',  ( 1.000000000000000000, 0.000000000000000000, 0.000000000000000000 ) ) ;
#239 = MECHANICAL_CONTEXT ( 'NONE', #80, 'mechanical' ) ;
#240 = CC_DESIGN_PERSON_AND_ORGANIZATION_ASSIGNMENT ( #166, #146, ( #205 ) ) ;
#241 = APPLICATION_PROTOCOL_DEFINITION ( 'international standard', 'config_control_design', 1994, #93 ) ;
#242 = CIRCLE ( 'NONE', #209, 20.00000000000000000 ) ;
#243 = AXIS2_PLACEMENT_3D ( 'NONE', #122, #23, #162 ) ;
#244 = DATE_AND_TIME ( #8, #192 ) ;
#245 = APPROVAL_STATUS ( 'not_yet_approved' ) ;
#246 = COORDINATED_UNIVERSAL_TIME_OFFSET ( 1, 0, .AHEAD. ) ;
#247 = CARTESIAN_POINT ( 'NONE',  ( 0.000000000000000000, 0.000000000000000000, 10.00000000000000000 ) ) ;
#248 = CIRCLE ( 'NONE', #172, 16.00000000000000000 ) ;
#249 = CC_DESIGN_PERSON_AND_ORGANIZATION_ASSIGNMENT ( #63, #10, ( #226 ) ) ;
#250 = ORGANIZATION ( 'NEURÈENÝ', 'NEURÈENÝ', '' ) ;
#251 = VERTEX_POINT ( 'NONE', #147 ) ;
#252 = ORIENTED_EDGE ( 'NONE', *, *, #24, .F. ) ;
#253 = DIRECTION ( 'NONE',  ( 0.000000000000000000, 0.000000000000000000, 1.000000000000000000 ) ) ;
#254 = AXIS2_PLACEMENT_3D ( 'NONE', #247, #208, #86 ) ;
#255 = ORIENTED_EDGE ( 'NONE', *, *, #101, .T. ) ;
ENDSEC;
END-ISO-10303-21;
