ISO-10303-21;
HEADER;
FILE_DESCRIPTION (( 'STEP AP203' ),
    '1' );
FILE_NAME ('7f3f.STEP',
    '2022-07-07T09:56:49',
    ( '' ),
    ( '' ),
    'SwSTEP 2.0',
    'SolidWorks 2019',
    '' );
FILE_SCHEMA (( 'CONFIG_CONTROL_DESIGN' ));
ENDSEC;

DATA;
#1 = CARTESIAN_POINT ( 'NONE',  ( 0.000000000000000000, 0.000000000000000000, 5.200000000000009948 ) ) ;
#2 = EDGE_CURVE ( 'NONE', #280, #80, #210, .T. ) ;
#3 = CARTESIAN_POINT ( 'NONE',  ( -4.500000000000000888, 0.000000000000000000, 5.200000000000009948 ) ) ;
#4 = DIRECTION ( 'NONE',  ( 1.000000000000000000, 0.000000000000000000, 0.000000000000000000 ) ) ;
#5 = EDGE_CURVE ( 'NONE', #249, #280, #10, .T. ) ;
#6 = COORDINATED_UNIVERSAL_TIME_OFFSET ( 1, 0, .AHEAD. ) ;
#7 = DIRECTION ( 'NONE',  ( 0.000000000000000000, 0.000000000000000000, 1.000000000000000000 ) ) ;
#8 = CC_DESIGN_DATE_AND_TIME_ASSIGNMENT ( #57, #156, ( #294 ) ) ;
#9 = PERSON_AND_ORGANIZATION ( #257, #106 ) ;
#10 = CIRCLE ( 'NONE', #282, 7.000000000000000000 ) ;
#11 = VERTEX_POINT ( 'NONE', #92 ) ;
#12 = DATE_TIME_ROLE ( 'creation_date' ) ;
#13 = AXIS2_PLACEMENT_3D ( 'NONE', #146, #15, #120 ) ;
#14 = VECTOR ( 'NONE', #96, 1000.000000000000000 ) ;
#15 = DIRECTION ( 'NONE',  ( 0.000000000000000000, 0.000000000000000000, 1.000000000000000000 ) ) ;
#16 = VERTEX_POINT ( 'NONE', #261 ) ;
#17 = DIRECTION ( 'NONE',  ( 1.000000000000000000, 0.000000000000000000, 0.000000000000000000 ) ) ;
#18 = FACE_OUTER_BOUND ( 'NONE', #187, .T. ) ;
#19 = EDGE_CURVE ( 'NONE', #280, #249, #94, .T. ) ;
#20 = APPLICATION_CONTEXT ( 'configuration controlled 3d designs of mechanical parts and assemblies' ) ;
#21 = ORIENTED_EDGE ( 'NONE', *, *, #242, .F. ) ;
#22 = EDGE_LOOP ( 'NONE', ( #189, #230, #46, #65 ) ) ;
#23 = AXIS2_PLACEMENT_3D ( 'NONE', #98, #30, #60 ) ;
#24 = DIRECTION ( 'NONE',  ( 0.000000000000000000, 0.000000000000000000, 1.000000000000000000 ) ) ;
#25 = CARTESIAN_POINT ( 'NONE',  ( 0.000000000000000000, 0.000000000000000000, 5.200000000000009948 ) ) ;
#26 = CARTESIAN_POINT ( 'NONE',  ( 7.000000000000000000, 8.572527594031473190E-16, 5.000000000000000000 ) ) ;
#27 = DIRECTION ( 'NONE',  ( 1.000000000000000000, 0.000000000000000000, 0.000000000000000000 ) ) ;
#28 = LINE ( 'NONE', #263, #127 ) ;
#29 = APPROVAL_PERSON_ORGANIZATION ( #246, #125, #172 ) ;
#30 = DIRECTION ( 'NONE',  ( 0.000000000000000000, 0.000000000000000000, 1.000000000000000000 ) ) ;
#31 = DATE_AND_TIME ( #150, #300 ) ;
#32 = APPROVAL_DATE_TIME ( #296, #99 ) ;
#33 = CIRCLE ( 'NONE', #136, 4.500000000000000888 ) ;
#34 = CARTESIAN_POINT ( 'NONE',  ( 0.000000000000000000, 0.000000000000000000, 0.000000000000000000 ) ) ;
#35 = MANIFOLD_SOLID_BREP ( 'Zaoblit1', #62 ) ;
#36 = PERSON_AND_ORGANIZATION_ROLE ( 'creator' ) ;
#37 = PRODUCT_DEFINITION ( 'NEZNÁMÝ', '', #253, #81 ) ;
#38 = DIRECTION ( 'NONE',  ( 0.000000000000000000, -1.000000000000000000, 0.000000000000000000 ) ) ;
#39 = DIRECTION ( 'NONE',  ( 0.000000000000000000, 0.000000000000000000, 1.000000000000000000 ) ) ;
#40 = AXIS2_PLACEMENT_3D ( 'NONE', #34, #7, #129 ) ;
#41 = EDGE_LOOP ( 'NONE', ( #288, #104, #47, #208 ) ) ;
#42 = CARTESIAN_POINT ( 'NONE',  ( -4.500000000000000888, 0.000000000000000000, 255.0000000000000000 ) ) ;
#43 = DIRECTION ( 'NONE',  ( 1.000000000000000000, 0.000000000000000000, 0.000000000000000000 ) ) ;
#44 = VERTEX_POINT ( 'NONE', #3 ) ;
#45 = PRODUCT_RELATED_PRODUCT_CATEGORY ( 'detail', '', ( #152 ) ) ;
#46 = ORIENTED_EDGE ( 'NONE', *, *, #199, .T. ) ;
#47 = ORIENTED_EDGE ( 'NONE', *, *, #151, .T. ) ;
#48 = FACE_OUTER_BOUND ( 'NONE', #22, .T. ) ;
#49 = DIRECTION ( 'NONE',  ( 0.000000000000000000, 0.000000000000000000, 1.000000000000000000 ) ) ;
#50 = CYLINDRICAL_SURFACE ( 'NONE', #160, 4.500000000000000888 ) ;
#51 = AXIS2_PLACEMENT_3D ( 'NONE', #113, #24, #72 ) ;
#52 = APPROVAL_PERSON_ORGANIZATION ( #9, #99, #241 ) ;
#53 = COORDINATED_UNIVERSAL_TIME_OFFSET ( 1, 0, .AHEAD. ) ;
#54 = APPROVAL_STATUS ( 'not_yet_approved' ) ;
#55 =( NAMED_UNIT ( * ) SI_UNIT ( $, .STERADIAN. ) SOLID_ANGLE_UNIT ( ) );
#56 = COORDINATED_UNIVERSAL_TIME_OFFSET ( 1, 0, .AHEAD. ) ;
#57 = DATE_AND_TIME ( #101, #133 ) ;
#58 = ADVANCED_FACE ( 'NONE', ( #118, #192 ), #217, .T. ) ;
#59 = ORIENTED_EDGE ( 'NONE', *, *, #223, .F. ) ;
#60 = DIRECTION ( 'NONE',  ( 1.000000000000000000, 0.000000000000000000, -0.000000000000000000 ) ) ;
#61 = EDGE_LOOP ( 'NONE', ( #117, #251 ) ) ;
#62 = CLOSED_SHELL ( 'NONE', ( #157, #258, #107, #269, #58, #250, #114, #155, #204 ) ) ;
#63 = DIRECTION ( 'NONE',  ( 1.000000000000000000, 0.000000000000000000, 0.000000000000000000 ) ) ;
#64 = CC_DESIGN_SECURITY_CLASSIFICATION ( #294, ( #253 ) ) ;
#65 = ORIENTED_EDGE ( 'NONE', *, *, #144, .T. ) ;
#66 = DIRECTION ( 'NONE',  ( -1.000000000000000000, 1.224646799147353454E-16, 0.000000000000000000 ) ) ;
#67 = EDGE_CURVE ( 'NONE', #131, #11, #276, .T. ) ;
#68 = DIRECTION ( 'NONE',  ( 1.224646799147353207E-16, 1.000000000000000000, -0.000000000000000000 ) ) ;
#69 = ORIENTED_EDGE ( 'NONE', *, *, #279, .T. ) ;
#70 = CIRCLE ( 'NONE', #306, 4.500000000000000888 ) ;
#71 = CARTESIAN_POINT ( 'NONE',  ( 0.000000000000000000, 0.000000000000000000, 5.200000000000009948 ) ) ;
#72 = DIRECTION ( 'NONE',  ( 1.000000000000000000, 0.000000000000000000, -0.000000000000000000 ) ) ;
#73 = CARTESIAN_POINT ( 'NONE',  ( 7.000000000000000000, 8.572527594031473190E-16, 5.000000000000000000 ) ) ;
#74 = EDGE_CURVE ( 'NONE', #11, #131, #186, .T. ) ;
#75 = VECTOR ( 'NONE', #281, 1000.000000000000000 ) ;
#76 = PERSON_AND_ORGANIZATION_ROLE ( 'design_owner' ) ;
#77 = DATE_AND_TIME ( #179, #197 ) ;
#78 = COORDINATED_UNIVERSAL_TIME_OFFSET ( 1, 0, .AHEAD. ) ;
#79 = LOCAL_TIME ( 11, 56, 49.00000000000000000, #56 ) ;
#80 = VERTEX_POINT ( 'NONE', #145 ) ;
#81 = DESIGN_CONTEXT ( 'detailed design', #207, 'design' ) ;
#82 = EDGE_CURVE ( 'NONE', #44, #11, #227, .T. ) ;
#83 = EDGE_LOOP ( 'NONE', ( #59, #163, #295, #21 ) ) ;
#84 = ORIENTED_EDGE ( 'NONE', *, *, #19, .F. ) ;
#85 = CC_DESIGN_PERSON_AND_ORGANIZATION_ASSIGNMENT ( #154, #76, ( #152 ) ) ;
#86 = DIRECTION ( 'NONE',  ( 0.000000000000000000, 0.000000000000000000, 1.000000000000000000 ) ) ;
#87 = CARTESIAN_POINT ( 'NONE',  ( 0.000000000000000000, 0.000000000000000000, 0.000000000000000000 ) ) ;
#88 = DIRECTION ( 'NONE',  ( -0.000000000000000000, -0.000000000000000000, -1.000000000000000000 ) ) ;
#89 = AXIS2_PLACEMENT_3D ( 'NONE', #286, #68, #66 ) ;
#90 = CARTESIAN_POINT ( 'NONE',  ( 0.000000000000000000, 0.000000000000000000, 5.000000000000000000 ) ) ;
#91 = EDGE_CURVE ( 'NONE', #302, #44, #266, .T. ) ;
#92 = CARTESIAN_POINT ( 'NONE',  ( -4.700000000000000178, 5.755839955992559655E-16, 5.000000000000005329 ) ) ;
#93 = CARTESIAN_POINT ( 'NONE',  ( 0.000000000000000000, 0.000000000000000000, 5.000000000000000000 ) ) ;
#94 = CIRCLE ( 'NONE', #148, 7.000000000000000000 ) ;
#95 = PLANE ( 'NONE',  #23 ) ;
#96 = DIRECTION ( 'NONE',  ( -0.000000000000000000, -0.000000000000000000, -1.000000000000000000 ) ) ;
#97 = CARTESIAN_POINT ( 'NONE',  ( -7.000000000000000000, 0.000000000000000000, 5.000000000000000000 ) ) ;
#98 = CARTESIAN_POINT ( 'NONE',  ( 0.000000000000000000, 0.000000000000000000, 255.0000000000000000 ) ) ;
#99 = APPROVAL ( #54, 'NEURÈENÝ' ) ;
#100 = APPROVAL_PERSON_ORGANIZATION ( #126, #213, #225 ) ;
#101 = CALENDAR_DATE ( 2022, 7, 7 ) ;
#102 = ADVANCED_BREP_SHAPE_REPRESENTATION ( '7f3f', ( #35, #40 ), #128 ) ;
#103 = DATE_AND_TIME ( #270, #79 ) ;
#104 = ORIENTED_EDGE ( 'NONE', *, *, #91, .F. ) ;
#105 = PERSON_AND_ORGANIZATION_ROLE ( 'classification_officer' ) ;
#106 = ORGANIZATION ( 'NEURÈENÝ', 'NEURÈENÝ', '' ) ;
#107 = ADVANCED_FACE ( 'NONE', ( #138 ), #259, .T. ) ;
#108 = AXIS2_PLACEMENT_3D ( 'NONE', #87, #283, #63 ) ;
#109 = CARTESIAN_POINT ( 'NONE',  ( 0.000000000000000000, 0.000000000000000000, 0.000000000000000000 ) ) ;
#110 = ORIENTED_EDGE ( 'NONE', *, *, #151, .F. ) ;
#111 = FACE_OUTER_BOUND ( 'NONE', #274, .T. ) ;
#112 = CYLINDRICAL_SURFACE ( 'NONE', #166, 4.500000000000000888 ) ;
#113 = CARTESIAN_POINT ( 'NONE',  ( 0.000000000000000000, 0.000000000000000000, 5.000000000000000000 ) ) ;
#114 = ADVANCED_FACE ( 'NONE', ( #18 ), #112, .T. ) ;
#115 = CC_DESIGN_APPROVAL ( #125, ( #294 ) ) ;
#116 = DIRECTION ( 'NONE',  ( 0.000000000000000000, 0.000000000000000000, 1.000000000000000000 ) ) ;
#117 = ORIENTED_EDGE ( 'NONE', *, *, #144, .F. ) ;
#118 = FACE_BOUND ( 'NONE', #135, .T. ) ;
#119 = EDGE_CURVE ( 'NONE', #190, #302, #28, .T. ) ;
#120 = DIRECTION ( 'NONE',  ( 1.000000000000000000, 0.000000000000000000, -0.000000000000000000 ) ) ;
#121 = DIRECTION ( 'NONE',  ( -0.000000000000000000, -0.000000000000000000, -1.000000000000000000 ) ) ;
#122 = AXIS2_PLACEMENT_3D ( 'NONE', #25, #262, #171 ) ;
#123 = FACE_OUTER_BOUND ( 'NONE', #41, .T. ) ;
#124 = PERSON_AND_ORGANIZATION_ROLE ( 'design_supplier' ) ;
#125 = APPROVAL ( #243, 'NEURÈENÝ' ) ;
#126 = PERSON_AND_ORGANIZATION ( #257, #106 ) ;
#127 = VECTOR ( 'NONE', #121, 1000.000000000000000 ) ;
#128 =( GEOMETRIC_REPRESENTATION_CONTEXT ( 3 ) GLOBAL_UNCERTAINTY_ASSIGNED_CONTEXT ( ( #275 ) ) GLOBAL_UNIT_ASSIGNED_CONTEXT ( ( #292, #206, #55 ) ) REPRESENTATION_CONTEXT ( 'NONE', 'WORKASPACE' ) );
#129 = DIRECTION ( 'NONE',  ( 1.000000000000000000, 0.000000000000000000, 0.000000000000000000 ) ) ;
#130 = EDGE_CURVE ( 'NONE', #16, #190, #33, .T. ) ;
#131 = VERTEX_POINT ( 'NONE', #265 ) ;
#132 = APPLICATION_PROTOCOL_DEFINITION ( 'international standard', 'config_control_design', 1994, #20 ) ;
#133 = LOCAL_TIME ( 11, 56, 49.00000000000000000, #6 ) ;
#134 = CARTESIAN_POINT ( 'NONE',  ( 4.500000000000000888, 5.510910596163089556E-16, 255.0000000000000000 ) ) ;
#135 = EDGE_LOOP ( 'NONE', ( #255, #143 ) ) ;
#136 = AXIS2_PLACEMENT_3D ( 'NONE', #147, #49, #252 ) ;
#137 = DIRECTION ( 'NONE',  ( -0.000000000000000000, -0.000000000000000000, -1.000000000000000000 ) ) ;
#138 = FACE_OUTER_BOUND ( 'NONE', #214, .T. ) ;
#139 = CARTESIAN_POINT ( 'NONE',  ( 0.000000000000000000, 0.000000000000000000, 255.0000000000000000 ) ) ;
#140 = ORIENTED_EDGE ( 'NONE', *, *, #67, .F. ) ;
#141 = ORIENTED_EDGE ( 'NONE', *, *, #199, .F. ) ;
#142 = AXIS2_PLACEMENT_3D ( 'NONE', #109, #39, #4 ) ;
#143 = ORIENTED_EDGE ( 'NONE', *, *, #74, .T. ) ;
#144 = EDGE_CURVE ( 'NONE', #299, #80, #278, .T. ) ;
#145 = CARTESIAN_POINT ( 'NONE',  ( 7.000000000000000000, 8.572527594031473190E-16, 0.000000000000000000 ) ) ;
#146 = CARTESIAN_POINT ( 'NONE',  ( 0.000000000000000000, 0.000000000000000000, 0.000000000000000000 ) ) ;
#147 = CARTESIAN_POINT ( 'NONE',  ( 0.000000000000000000, 0.000000000000000000, 255.0000000000000000 ) ) ;
#148 = AXIS2_PLACEMENT_3D ( 'NONE', #284, #287, #43 ) ;
#149 = CYLINDRICAL_SURFACE ( 'NONE', #178, 7.000000000000000000 ) ;
#150 = CALENDAR_DATE ( 2022, 7, 7 ) ;
#151 = EDGE_CURVE ( 'NONE', #302, #131, #224, .T. ) ;
#152 = PRODUCT ( '7f3f', '7f3f', '', ( #203 ) ) ;
#153 = COORDINATED_UNIVERSAL_TIME_OFFSET ( 1, 0, .AHEAD. ) ;
#154 = PERSON_AND_ORGANIZATION ( #257, #106 ) ;
#155 = ADVANCED_FACE ( 'NONE', ( #231 ), #95, .T. ) ;
#156 = DATE_TIME_ROLE ( 'classification_date' ) ;
#157 = ADVANCED_FACE ( 'NONE', ( #111 ), #260, .F. ) ;
#158 = LINE ( 'NONE', #42, #268 ) ;
#159 = ORIENTED_EDGE ( 'NONE', *, *, #119, .F. ) ;
#160 = AXIS2_PLACEMENT_3D ( 'NONE', #139, #233, #289 ) ;
#161 = DIRECTION ( 'NONE',  ( -0.000000000000000000, -0.000000000000000000, -1.000000000000000000 ) ) ;
#162 = CC_DESIGN_DATE_AND_TIME_ASSIGNMENT ( #103, #12, ( #37 ) ) ;
#163 = ORIENTED_EDGE ( 'NONE', *, *, #119, .T. ) ;
#164 = DIRECTION ( 'NONE',  ( -0.000000000000000000, -0.000000000000000000, -1.000000000000000000 ) ) ;
#165 = DIRECTION ( 'NONE',  ( 1.000000000000000000, 0.000000000000000000, 0.000000000000000000 ) ) ;
#166 = AXIS2_PLACEMENT_3D ( 'NONE', #304, #88, #239 ) ;
#167 = CIRCLE ( 'NONE', #173, 4.500000000000000888 ) ;
#168 = DIRECTION ( 'NONE',  ( 1.000000000000000000, 0.000000000000000000, 0.000000000000000000 ) ) ;
#169 = DIRECTION ( 'NONE',  ( 0.000000000000000000, 0.000000000000000000, -1.000000000000000000 ) ) ;
#170 = DIRECTION ( 'NONE',  ( 0.000000000000000000, 0.000000000000000000, 1.000000000000000000 ) ) ;
#171 = DIRECTION ( 'NONE',  ( 1.000000000000000000, 0.000000000000000000, 0.000000000000000000 ) ) ;
#172 = APPROVAL_ROLE ( '' ) ;
#173 = AXIS2_PLACEMENT_3D ( 'NONE', #71, #86, #17 ) ;
#174 = APPROVAL_DATE_TIME ( #77, #213 ) ;
#175 = PERSON_AND_ORGANIZATION ( #257, #106 ) ;
#176 = CC_DESIGN_PERSON_AND_ORGANIZATION_ASSIGNMENT ( #267, #124, ( #253 ) ) ;
#177 = AXIS2_PLACEMENT_3D ( 'NONE', #90, #188, #168 ) ;
#178 = AXIS2_PLACEMENT_3D ( 'NONE', #209, #161, #218 ) ;
#179 = CALENDAR_DATE ( 2022, 7, 7 ) ;
#180 = ORIENTED_EDGE ( 'NONE', *, *, #279, .F. ) ;
#181 = AXIS2_PLACEMENT_3D ( 'NONE', #1, #170, #165 ) ;
#182 = ORIENTED_EDGE ( 'NONE', *, *, #130, .T. ) ;
#183 = CARTESIAN_POINT ( 'NONE',  ( 0.000000000000000000, 0.000000000000000000, 5.200000000000009948 ) ) ;
#184 = CC_DESIGN_PERSON_AND_ORGANIZATION_ASSIGNMENT ( #293, #105, ( #294 ) ) ;
#185 = DIRECTION ( 'NONE',  ( 1.000000000000000000, 0.000000000000000000, 0.000000000000000000 ) ) ;
#186 = CIRCLE ( 'NONE', #177, 4.700000000000000178 ) ;
#187 = EDGE_LOOP ( 'NONE', ( #159, #205, #234, #69 ) ) ;
#188 = DIRECTION ( 'NONE',  ( -0.000000000000000000, -0.000000000000000000, -1.000000000000000000 ) ) ;
#189 = ORIENTED_EDGE ( 'NONE', *, *, #2, .F. ) ;
#190 = VERTEX_POINT ( 'NONE', #134 ) ;
#191 = DIRECTION ( 'NONE',  ( 0.000000000000000000, 0.000000000000000000, 1.000000000000000000 ) ) ;
#192 = FACE_OUTER_BOUND ( 'NONE', #256, .T. ) ;
#193 = PLANE ( 'NONE',  #13 ) ;
#194 = CARTESIAN_POINT ( 'NONE',  ( 4.500000000000000888, 5.510910596163089556E-16, 5.200000000000009948 ) ) ;
#195 = CC_DESIGN_PERSON_AND_ORGANIZATION_ASSIGNMENT ( #222, #36, ( #253 ) ) ;
#196 = APPLICATION_PROTOCOL_DEFINITION ( 'international standard', 'config_control_design', 1994, #207 ) ;
#197 = LOCAL_TIME ( 11, 56, 49.00000000000000000, #78 ) ;
#198 = SHAPE_DEFINITION_REPRESENTATION ( #264, #102 ) ;
#199 = EDGE_CURVE ( 'NONE', #249, #299, #216, .T. ) ;
#200 = CALENDAR_DATE ( 2022, 7, 7 ) ;
#201 = ORIENTED_EDGE ( 'NONE', *, *, #223, .T. ) ;
#202 = TOROIDAL_SURFACE ( 'NONE', #122, 4.700000000000000178, 0.2000000000000000111 ) ;
#203 = MECHANICAL_CONTEXT ( 'NONE', #20, 'mechanical' ) ;
#204 = ADVANCED_FACE ( 'NONE', ( #123 ), #202, .F. ) ;
#205 = ORIENTED_EDGE ( 'NONE', *, *, #130, .F. ) ;
#206 =( NAMED_UNIT ( * ) PLANE_ANGLE_UNIT ( ) SI_UNIT ( $, .RADIAN. ) );
#207 = APPLICATION_CONTEXT ( 'configuration controlled 3d designs of mechanical parts and assemblies' ) ;
#208 = ORIENTED_EDGE ( 'NONE', *, *, #74, .F. ) ;
#209 = CARTESIAN_POINT ( 'NONE',  ( 0.000000000000000000, 0.000000000000000000, 5.000000000000000000 ) ) ;
#210 = LINE ( 'NONE', #26, #14 ) ;
#211 = CARTESIAN_POINT ( 'NONE',  ( 0.000000000000000000, 0.000000000000000000, 5.000000000000000000 ) ) ;
#212 = CC_DESIGN_APPROVAL ( #213, ( #37 ) ) ;
#213 = APPROVAL ( #245, 'NEURÈENÝ' ) ;
#214 = EDGE_LOOP ( 'NONE', ( #84, #247, #226, #141 ) ) ;
#215 = DIRECTION ( 'NONE',  ( 1.000000000000000000, 0.000000000000000000, 0.000000000000000000 ) ) ;
#216 = LINE ( 'NONE', #229, #75 ) ;
#217 = PLANE ( 'NONE',  #51 ) ;
#218 = DIRECTION ( 'NONE',  ( -1.000000000000000000, 0.000000000000000000, 0.000000000000000000 ) ) ;
#219 = AXIS2_PLACEMENT_3D ( 'NONE', #183, #220, #27 ) ;
#220 = DIRECTION ( 'NONE',  ( 0.000000000000000000, 0.000000000000000000, 1.000000000000000000 ) ) ;
#221 = APPROVAL_DATE_TIME ( #31, #125 ) ;
#222 = PERSON_AND_ORGANIZATION ( #257, #106 ) ;
#223 = EDGE_CURVE ( 'NONE', #190, #16, #70, .T. ) ;
#224 = CIRCLE ( 'NONE', #228, 0.1999999999999996503 ) ;
#225 = APPROVAL_ROLE ( '' ) ;
#226 = ORIENTED_EDGE ( 'NONE', *, *, #297, .T. ) ;
#227 = CIRCLE ( 'NONE', #89, 0.1999999999999996503 ) ;
#228 = AXIS2_PLACEMENT_3D ( 'NONE', #303, #38, #169 ) ;
#229 = CARTESIAN_POINT ( 'NONE',  ( -7.000000000000000000, 0.000000000000000000, 5.000000000000000000 ) ) ;
#230 = ORIENTED_EDGE ( 'NONE', *, *, #5, .F. ) ;
#231 = FACE_OUTER_BOUND ( 'NONE', #237, .T. ) ;
#232 = DIRECTION ( 'NONE',  ( -1.000000000000000000, 0.000000000000000000, 0.000000000000000000 ) ) ;
#233 = DIRECTION ( 'NONE',  ( -0.000000000000000000, -0.000000000000000000, -1.000000000000000000 ) ) ;
#234 = ORIENTED_EDGE ( 'NONE', *, *, #242, .T. ) ;
#235 = CARTESIAN_POINT ( 'NONE',  ( 0.000000000000000000, 0.000000000000000000, 5.000000000000000000 ) ) ;
#236 = ORIENTED_EDGE ( 'NONE', *, *, #5, .T. ) ;
#237 = EDGE_LOOP ( 'NONE', ( #182, #201 ) ) ;
#238 = FACE_OUTER_BOUND ( 'NONE', #61, .T. ) ;
#239 = DIRECTION ( 'NONE',  ( -1.000000000000000000, 0.000000000000000000, 0.000000000000000000 ) ) ;
#240 = SECURITY_CLASSIFICATION_LEVEL ( 'unclassified' ) ;
#241 = APPROVAL_ROLE ( '' ) ;
#242 = EDGE_CURVE ( 'NONE', #16, #44, #158, .T. ) ;
#243 = APPROVAL_STATUS ( 'not_yet_approved' ) ;
#244 = LOCAL_TIME ( 11, 56, 49.00000000000000000, #153 ) ;
#245 = APPROVAL_STATUS ( 'not_yet_approved' ) ;
#246 = PERSON_AND_ORGANIZATION ( #257, #106 ) ;
#247 = ORIENTED_EDGE ( 'NONE', *, *, #2, .T. ) ;
#248 = CC_DESIGN_APPROVAL ( #99, ( #253 ) ) ;
#249 = VERTEX_POINT ( 'NONE', #97 ) ;
#250 = ADVANCED_FACE ( 'NONE', ( #238 ), #193, .F. ) ;
#251 = ORIENTED_EDGE ( 'NONE', *, *, #297, .F. ) ;
#252 = DIRECTION ( 'NONE',  ( 1.000000000000000000, 0.000000000000000000, 0.000000000000000000 ) ) ;
#253 = PRODUCT_DEFINITION_FORMATION_WITH_SPECIFIED_SOURCE ( 'LIBOVOLNÝ', '', #152, .NOT_KNOWN. ) ;
#254 = CARTESIAN_POINT ( 'NONE',  ( -7.000000000000000000, 0.000000000000000000, 0.000000000000000000 ) ) ;
#255 = ORIENTED_EDGE ( 'NONE', *, *, #67, .T. ) ;
#256 = EDGE_LOOP ( 'NONE', ( #236, #305 ) ) ;
#257 = PERSON ( 'NEURÈENÝ', 'NEURÈENÝ', 'NEURÈENÝ', ('NEURÈENÝ'), ('NEURÈENÝ'), ('NEURÈENÝ') ) ;
#258 = ADVANCED_FACE ( 'NONE', ( #291 ), #50, .T. ) ;
#259 = CYLINDRICAL_SURFACE ( 'NONE', #298, 7.000000000000000000 ) ;
#260 = TOROIDAL_SURFACE ( 'NONE', #219, 4.700000000000000178, 0.2000000000000000111 ) ;
#261 = CARTESIAN_POINT ( 'NONE',  ( -4.500000000000000888, 0.000000000000000000, 255.0000000000000000 ) ) ;
#262 = DIRECTION ( 'NONE',  ( 0.000000000000000000, 0.000000000000000000, 1.000000000000000000 ) ) ;
#263 = CARTESIAN_POINT ( 'NONE',  ( 4.500000000000000888, 5.510910596163089556E-16, 255.0000000000000000 ) ) ;
#264 = PRODUCT_DEFINITION_SHAPE ( 'NONE', 'NONE',  #37 ) ;
#265 = CARTESIAN_POINT ( 'NONE',  ( 4.700000000000000178, 0.000000000000000000, 5.000000000000005329 ) ) ;
#266 = CIRCLE ( 'NONE', #181, 4.500000000000000888 ) ;
#267 = PERSON_AND_ORGANIZATION ( #257, #106 ) ;
#268 = VECTOR ( 'NONE', #137, 1000.000000000000000 ) ;
#269 = ADVANCED_FACE ( 'NONE', ( #48 ), #149, .T. ) ;
#270 = CALENDAR_DATE ( 2022, 7, 7 ) ;
#271 = AXIS2_PLACEMENT_3D ( 'NONE', #211, #290, #215 ) ;
#272 = PERSON_AND_ORGANIZATION_ROLE ( 'creator' ) ;
#273 = CC_DESIGN_PERSON_AND_ORGANIZATION_ASSIGNMENT ( #175, #272, ( #37 ) ) ;
#274 = EDGE_LOOP ( 'NONE', ( #180, #277, #140, #110 ) ) ;
#275 = UNCERTAINTY_MEASURE_WITH_UNIT (LENGTH_MEASURE( 1.000000000000000082E-05 ), #292, 'distance_accuracy_value', 'NONE');
#276 = CIRCLE ( 'NONE', #271, 4.700000000000000178 ) ;
#277 = ORIENTED_EDGE ( 'NONE', *, *, #82, .T. ) ;
#278 = CIRCLE ( 'NONE', #142, 7.000000000000000000 ) ;
#279 = EDGE_CURVE ( 'NONE', #44, #302, #167, .T. ) ;
#280 = VERTEX_POINT ( 'NONE', #73 ) ;
#281 = DIRECTION ( 'NONE',  ( -0.000000000000000000, -0.000000000000000000, -1.000000000000000000 ) ) ;
#282 = AXIS2_PLACEMENT_3D ( 'NONE', #235, #116, #307 ) ;
#283 = DIRECTION ( 'NONE',  ( 0.000000000000000000, 0.000000000000000000, 1.000000000000000000 ) ) ;
#284 = CARTESIAN_POINT ( 'NONE',  ( 0.000000000000000000, 0.000000000000000000, 5.000000000000000000 ) ) ;
#285 = CIRCLE ( 'NONE', #108, 7.000000000000000000 ) ;
#286 = CARTESIAN_POINT ( 'NONE',  ( -4.700000000000000178, 5.755839955992559655E-16, 5.200000000000009948 ) ) ;
#287 = DIRECTION ( 'NONE',  ( 0.000000000000000000, 0.000000000000000000, 1.000000000000000000 ) ) ;
#288 = ORIENTED_EDGE ( 'NONE', *, *, #82, .F. ) ;
#289 = DIRECTION ( 'NONE',  ( -1.000000000000000000, 0.000000000000000000, 0.000000000000000000 ) ) ;
#290 = DIRECTION ( 'NONE',  ( -0.000000000000000000, -0.000000000000000000, -1.000000000000000000 ) ) ;
#291 = FACE_OUTER_BOUND ( 'NONE', #83, .T. ) ;
#292 =( LENGTH_UNIT ( ) NAMED_UNIT ( * ) SI_UNIT ( .MILLI., .METRE. ) );
#293 = PERSON_AND_ORGANIZATION ( #257, #106 ) ;
#294 = SECURITY_CLASSIFICATION ( '', '', #240 ) ;
#295 = ORIENTED_EDGE ( 'NONE', *, *, #91, .T. ) ;
#296 = DATE_AND_TIME ( #200, #244 ) ;
#297 = EDGE_CURVE ( 'NONE', #80, #299, #285, .T. ) ;
#298 = AXIS2_PLACEMENT_3D ( 'NONE', #93, #164, #232 ) ;
#299 = VERTEX_POINT ( 'NONE', #254 ) ;
#300 = LOCAL_TIME ( 11, 56, 49.00000000000000000, #53 ) ;
#301 = CARTESIAN_POINT ( 'NONE',  ( 0.000000000000000000, 0.000000000000000000, 255.0000000000000000 ) ) ;
#302 = VERTEX_POINT ( 'NONE', #194 ) ;
#303 = CARTESIAN_POINT ( 'NONE',  ( 4.700000000000000178, 0.000000000000000000, 5.200000000000009948 ) ) ;
#304 = CARTESIAN_POINT ( 'NONE',  ( 0.000000000000000000, 0.000000000000000000, 255.0000000000000000 ) ) ;
#305 = ORIENTED_EDGE ( 'NONE', *, *, #19, .T. ) ;
#306 = AXIS2_PLACEMENT_3D ( 'NONE', #301, #191, #185 ) ;
#307 = DIRECTION ( 'NONE',  ( 1.000000000000000000, 0.000000000000000000, 0.000000000000000000 ) ) ;
ENDSEC;
END-ISO-10303-21;
