ISO-10303-21;
HEADER;
FILE_DESCRIPTION (( 'STEP AP203' ),
    '1' );
FILE_NAME ('f787.STEP',
    '2022-07-07T09:41:51',
    ( '' ),
    ( '' ),
    'SwSTEP 2.0',
    'SolidWorks 2019',
    '' );
FILE_SCHEMA (( 'CONFIG_CONTROL_DESIGN' ));
ENDSEC;

DATA;
#1 = CYLINDRICAL_SURFACE ( 'NONE', #10, 9.000000000000000000 ) ;
#2 = CARTESIAN_POINT ( 'NONE',  ( 0.000000000000000000, 0.000000000000000000, 0.000000000000000000 ) ) ;
#3 = CARTESIAN_POINT ( 'NONE',  ( 0.000000000000000000, 0.000000000000000000, 1006.999999999999886 ) ) ;
#4 = LOCAL_TIME ( 11, 41, 51.00000000000000000, #261 ) ;
#5 = CARTESIAN_POINT ( 'NONE',  ( 0.000000000000000000, 0.000000000000000000, 7.000000000000000000 ) ) ;
#6 = CARTESIAN_POINT ( 'NONE',  ( 0.000000000000000000, 0.000000000000000000, 7.199999999999984190 ) ) ;
#7 = LINE ( 'NONE', #222, #110 ) ;
#8 = FACE_OUTER_BOUND ( 'NONE', #89, .T. ) ;
#9 = CARTESIAN_POINT ( 'NONE',  ( 0.000000000000000000, 0.000000000000000000, 1006.999999999999886 ) ) ;
#10 = AXIS2_PLACEMENT_3D ( 'NONE', #263, #150, #199 ) ;
#11 = ADVANCED_FACE ( 'NONE', ( #183 ), #31, .F. ) ;
#12 = CIRCLE ( 'NONE', #241, 6.250000000000000000 ) ;
#13 = PLANE ( 'NONE',  #137 ) ;
#14 = VERTEX_POINT ( 'NONE', #39 ) ;
#15 = CARTESIAN_POINT ( 'NONE',  ( 6.250000000000000000, 7.654042494670957606E-16, 1006.999999999999886 ) ) ;
#16 = VERTEX_POINT ( 'NONE', #232 ) ;
#17 = CIRCLE ( 'NONE', #175, 6.250000000000000000 ) ;
#18 = AXIS2_PLACEMENT_3D ( 'NONE', #6, #35, #179 ) ;
#19 = ADVANCED_FACE ( 'NONE', ( #159 ), #13, .F. ) ;
#20 = ORIENTED_EDGE ( 'NONE', *, *, #265, .F. ) ;
#21 = PERSON_AND_ORGANIZATION_ROLE ( 'classification_officer' ) ;
#22 = AXIS2_PLACEMENT_3D ( 'NONE', #286, #80, #264 ) ;
#23 = PERSON_AND_ORGANIZATION ( #44, #164 ) ;
#24 = VERTEX_POINT ( 'NONE', #88 ) ;
#25 = ORIENTED_EDGE ( 'NONE', *, *, #29, .F. ) ;
#26 = FACE_OUTER_BOUND ( 'NONE', #278, .T. ) ;
#27 = ORIENTED_EDGE ( 'NONE', *, *, #200, .F. ) ;
#28 = FACE_OUTER_BOUND ( 'NONE', #307, .T. ) ;
#29 = EDGE_CURVE ( 'NONE', #217, #115, #106, .T. ) ;
#30 = FACE_BOUND ( 'NONE', #188, .T. ) ;
#31 = TOROIDAL_SURFACE ( 'NONE', #71, 6.450000000000000178, 0.2000000000000000111 ) ;
#32 = DIRECTION ( 'NONE',  ( -1.000000000000000000, 0.000000000000000000, 0.000000000000000000 ) ) ;
#33 = CARTESIAN_POINT ( 'NONE',  ( 0.000000000000000000, 0.000000000000000000, 7.000000000000000000 ) ) ;
#34 = DIRECTION ( 'NONE',  ( -0.000000000000000000, -0.000000000000000000, -1.000000000000000000 ) ) ;
#35 = DIRECTION ( 'NONE',  ( 0.000000000000000000, 0.000000000000000000, 1.000000000000000000 ) ) ;
#36 = CARTESIAN_POINT ( 'NONE',  ( 0.000000000000000000, 0.000000000000000000, 0.000000000000000000 ) ) ;
#37 = EDGE_CURVE ( 'NONE', #217, #14, #140, .T. ) ;
#38 = CIRCLE ( 'NONE', #128, 9.000000000000000000 ) ;
#39 = CARTESIAN_POINT ( 'NONE',  ( 6.250000000000000000, 7.654042494670957606E-16, 7.199999999999984190 ) ) ;
#40 = DIRECTION ( 'NONE',  ( 1.000000000000000000, 0.000000000000000000, 0.000000000000000000 ) ) ;
#41 = ORIENTED_EDGE ( 'NONE', *, *, #67, .F. ) ;
#42 = COORDINATED_UNIVERSAL_TIME_OFFSET ( 1, 0, .AHEAD. ) ;
#43 = ORIENTED_EDGE ( 'NONE', *, *, #189, .F. ) ;
#44 = PERSON ( 'NEURÈENÝ', 'NEURÈENÝ', 'NEURÈENÝ', ('NEURÈENÝ'), ('NEURÈENÝ'), ('NEURÈENÝ') ) ;
#45 = CALENDAR_DATE ( 2022, 7, 7 ) ;
#46 = PERSON_AND_ORGANIZATION_ROLE ( 'design_owner' ) ;
#47 = PRODUCT_DEFINITION_SHAPE ( 'NONE', 'NONE',  #119 ) ;
#48 = DESIGN_CONTEXT ( 'detailed design', #301, 'design' ) ;
#49 = PERSON_AND_ORGANIZATION_ROLE ( 'creator' ) ;
#50 = LOCAL_TIME ( 11, 41, 51.00000000000000000, #216 ) ;
#51 = EDGE_LOOP ( 'NONE', ( #25, #101, #162, #280 ) ) ;
#52 = DIRECTION ( 'NONE',  ( 0.000000000000000000, 0.000000000000000000, 1.000000000000000000 ) ) ;
#53 = EDGE_LOOP ( 'NONE', ( #296, #171 ) ) ;
#54 = ADVANCED_FACE ( 'NONE', ( #113 ), #91, .T. ) ;
#55 = CARTESIAN_POINT ( 'NONE',  ( -6.450000000000000178, 7.898971854500428692E-16, 6.999999999999992006 ) ) ;
#56 = CIRCLE ( 'NONE', #230, 9.000000000000000000 ) ;
#57 = TOROIDAL_SURFACE ( 'NONE', #215, 6.450000000000000178, 0.2000000000000000111 ) ;
#58 = EDGE_CURVE ( 'NONE', #115, #237, #7, .T. ) ;
#59 = DIRECTION ( 'NONE',  ( -0.000000000000000000, -0.000000000000000000, -1.000000000000000000 ) ) ;
#60 = DIRECTION ( 'NONE',  ( 1.224646799147353207E-16, 1.000000000000000000, -0.000000000000000000 ) ) ;
#61 = DIRECTION ( 'NONE',  ( 1.000000000000000000, 0.000000000000000000, 0.000000000000000000 ) ) ;
#62 = FACE_OUTER_BOUND ( 'NONE', #185, .T. ) ;
#63 = PRODUCT_RELATED_PRODUCT_CATEGORY ( 'detail', '', ( #193 ) ) ;
#64 = CIRCLE ( 'NONE', #236, 0.1999999999999996503 ) ;
#65 = DIRECTION ( 'NONE',  ( 1.000000000000000000, 0.000000000000000000, 0.000000000000000000 ) ) ;
#66 = ORIENTED_EDGE ( 'NONE', *, *, #238, .T. ) ;
#67 = EDGE_CURVE ( 'NONE', #148, #69, #151, .T. ) ;
#68 = VERTEX_POINT ( 'NONE', #131 ) ;
#69 = VERTEX_POINT ( 'NONE', #132 ) ;
#70 = CALENDAR_DATE ( 2022, 7, 7 ) ;
#71 = AXIS2_PLACEMENT_3D ( 'NONE', #206, #276, #65 ) ;
#72 = AXIS2_PLACEMENT_3D ( 'NONE', #227, #291, #83 ) ;
#73 = PERSON_AND_ORGANIZATION ( #44, #164 ) ;
#74 = CC_DESIGN_DATE_AND_TIME_ASSIGNMENT ( #303, #304, ( #119 ) ) ;
#75 = CALENDAR_DATE ( 2022, 7, 7 ) ;
#76 = ORIENTED_EDGE ( 'NONE', *, *, #265, .T. ) ;
#77 = DIRECTION ( 'NONE',  ( 0.000000000000000000, 0.000000000000000000, 1.000000000000000000 ) ) ;
#78 = EDGE_CURVE ( 'NONE', #68, #148, #38, .T. ) ;
#79 = ORIENTED_EDGE ( 'NONE', *, *, #234, .T. ) ;
#80 = DIRECTION ( 'NONE',  ( 0.000000000000000000, 0.000000000000000000, 1.000000000000000000 ) ) ;
#81 = CARTESIAN_POINT ( 'NONE',  ( 0.000000000000000000, 0.000000000000000000, 7.000000000000000000 ) ) ;
#82 = DIRECTION ( 'NONE',  ( 0.000000000000000000, 0.000000000000000000, 1.000000000000000000 ) ) ;
#83 = DIRECTION ( 'NONE',  ( 1.000000000000000000, 0.000000000000000000, -0.000000000000000000 ) ) ;
#84 = DIRECTION ( 'NONE',  ( -1.000000000000000000, 0.000000000000000000, 0.000000000000000000 ) ) ;
#85 = APPLICATION_PROTOCOL_DEFINITION ( 'international standard', 'config_control_design', 1994, #208 ) ;
#86 = LOCAL_TIME ( 11, 41, 51.00000000000000000, #117 ) ;
#87 = PERSON_AND_ORGANIZATION ( #44, #164 ) ;
#88 = CARTESIAN_POINT ( 'NONE',  ( 6.450000000000000178, 0.000000000000000000, 6.999999999999992006 ) ) ;
#89 = EDGE_LOOP ( 'NONE', ( #142, #169, #235, #212 ) ) ;
#90 = CC_DESIGN_APPROVAL ( #125, ( #119 ) ) ;
#91 = CYLINDRICAL_SURFACE ( 'NONE', #271, 6.250000000000000000 ) ;
#92 = APPLICATION_PROTOCOL_DEFINITION ( 'international standard', 'config_control_design', 1994, #301 ) ;
#93 = ORIENTED_EDGE ( 'NONE', *, *, #67, .T. ) ;
#94 = EDGE_CURVE ( 'NONE', #14, #24, #64, .T. ) ;
#95 = SHAPE_DEFINITION_REPRESENTATION ( #47, #172 ) ;
#96 = PRODUCT_DEFINITION_FORMATION_WITH_SPECIFIED_SOURCE ( 'LIBOVOLNÝ', '', #193, .NOT_KNOWN. ) ;
#97 = CIRCLE ( 'NONE', #122, 9.000000000000000000 ) ;
#98 = PERSON_AND_ORGANIZATION ( #44, #164 ) ;
#99 = SECURITY_CLASSIFICATION_LEVEL ( 'unclassified' ) ;
#100 = ORIENTED_EDGE ( 'NONE', *, *, #145, .T. ) ;
#101 = ORIENTED_EDGE ( 'NONE', *, *, #37, .T. ) ;
#102 = CARTESIAN_POINT ( 'NONE',  ( 0.000000000000000000, 0.000000000000000000, 7.199999999999984190 ) ) ;
#103 = DIRECTION ( 'NONE',  ( -0.000000000000000000, -0.000000000000000000, -1.000000000000000000 ) ) ;
#104 = CC_DESIGN_PERSON_AND_ORGANIZATION_ASSIGNMENT ( #165, #49, ( #96 ) ) ;
#105 = DIRECTION ( 'NONE',  ( -0.000000000000000000, -0.000000000000000000, -1.000000000000000000 ) ) ;
#106 = CIRCLE ( 'NONE', #210, 6.250000000000000000 ) ;
#107 = DIRECTION ( 'NONE',  ( 0.000000000000000000, 0.000000000000000000, -1.000000000000000000 ) ) ;
#108 = CARTESIAN_POINT ( 'NONE',  ( 0.000000000000000000, 0.000000000000000000, 1006.999999999999886 ) ) ;
#109 = CYLINDRICAL_SURFACE ( 'NONE', #277, 6.250000000000000000 ) ;
#110 = VECTOR ( 'NONE', #59, 1000.000000000000000 ) ;
#111 = ADVANCED_FACE ( 'NONE', ( #30, #203 ), #268, .T. ) ;
#112 = ORIENTED_EDGE ( 'NONE', *, *, #182, .T. ) ;
#113 = FACE_OUTER_BOUND ( 'NONE', #51, .T. ) ;
#114 = DATE_TIME_ROLE ( 'classification_date' ) ;
#115 = VERTEX_POINT ( 'NONE', #178 ) ;
#116 = SECURITY_CLASSIFICATION ( '', '', #99 ) ;
#117 = COORDINATED_UNIVERSAL_TIME_OFFSET ( 1, 0, .AHEAD. ) ;
#118 = APPROVAL_STATUS ( 'not_yet_approved' ) ;
#119 = PRODUCT_DEFINITION ( 'NEZNÁMÝ', '', #96, #48 ) ;
#120 = DATE_AND_TIME ( #259, #50 ) ;
#121 = CIRCLE ( 'NONE', #287, 6.450000000000000178 ) ;
#122 = AXIS2_PLACEMENT_3D ( 'NONE', #136, #225, #272 ) ;
#123 = CALENDAR_DATE ( 2022, 7, 7 ) ;
#124 = ORIENTED_EDGE ( 'NONE', *, *, #182, .F. ) ;
#125 = APPROVAL ( #194, 'NEURÈENÝ' ) ;
#126 = ORIENTED_EDGE ( 'NONE', *, *, #78, .F. ) ;
#127 = DIRECTION ( 'NONE',  ( 1.000000000000000000, 0.000000000000000000, 0.000000000000000000 ) ) ;
#128 = AXIS2_PLACEMENT_3D ( 'NONE', #81, #176, #224 ) ;
#129 = FACE_OUTER_BOUND ( 'NONE', #186, .T. ) ;
#130 = CC_DESIGN_PERSON_AND_ORGANIZATION_ASSIGNMENT ( #256, #21, ( #116 ) ) ;
#131 = CARTESIAN_POINT ( 'NONE',  ( -9.000000000000000000, 0.000000000000000000, 7.000000000000000000 ) ) ;
#132 = CARTESIAN_POINT ( 'NONE',  ( 9.000000000000000000, 1.102182119232617714E-15, 0.000000000000000000 ) ) ;
#133 = DIRECTION ( 'NONE',  ( -0.000000000000000000, -0.000000000000000000, -1.000000000000000000 ) ) ;
#134 =( NAMED_UNIT ( * ) SI_UNIT ( $, .STERADIAN. ) SOLID_ANGLE_UNIT ( ) );
#135 = APPROVAL ( #163, 'NEURÈENÝ' ) ;
#136 = CARTESIAN_POINT ( 'NONE',  ( 0.000000000000000000, 0.000000000000000000, 0.000000000000000000 ) ) ;
#137 = AXIS2_PLACEMENT_3D ( 'NONE', #209, #297, #295 ) ;
#138 = CC_DESIGN_APPROVAL ( #174, ( #116 ) ) ;
#139 = ORIENTED_EDGE ( 'NONE', *, *, #154, .F. ) ;
#140 = LINE ( 'NONE', #15, #246 ) ;
#141 = ORIENTED_EDGE ( 'NONE', *, *, #274, .F. ) ;
#142 = ORIENTED_EDGE ( 'NONE', *, *, #37, .F. ) ;
#143 = CC_DESIGN_SECURITY_CLASSIFICATION ( #116, ( #96 ) ) ;
#144 = DATE_AND_TIME ( #70, #244 ) ;
#145 = EDGE_CURVE ( 'NONE', #237, #149, #191, .T. ) ;
#146 = PERSON_AND_ORGANIZATION ( #44, #164 ) ;
#147 =( GEOMETRIC_REPRESENTATION_CONTEXT ( 3 ) GLOBAL_UNCERTAINTY_ASSIGNED_CONTEXT ( ( #166 ) ) GLOBAL_UNIT_ASSIGNED_CONTEXT ( ( #226, #228, #134 ) ) REPRESENTATION_CONTEXT ( 'NONE', 'WORKASPACE' ) );
#148 = VERTEX_POINT ( 'NONE', #201 ) ;
#149 = VERTEX_POINT ( 'NONE', #55 ) ;
#150 = DIRECTION ( 'NONE',  ( -0.000000000000000000, -0.000000000000000000, -1.000000000000000000 ) ) ;
#151 = LINE ( 'NONE', #289, #197 ) ;
#152 = DIRECTION ( 'NONE',  ( -1.000000000000000000, 1.224646799147353454E-16, 0.000000000000000000 ) ) ;
#153 = DIRECTION ( 'NONE',  ( -0.000000000000000000, -0.000000000000000000, -1.000000000000000000 ) ) ;
#154 = EDGE_CURVE ( 'NONE', #237, #14, #17, .T. ) ;
#155 = AXIS2_PLACEMENT_3D ( 'NONE', #269, #60, #152 ) ;
#156 = CYLINDRICAL_SURFACE ( 'NONE', #266, 9.000000000000000000 ) ;
#157 = MANIFOLD_SOLID_BREP ( 'Zaoblit1', #258 ) ;
#158 = CIRCLE ( 'NONE', #22, 9.000000000000000000 ) ;
#159 = FACE_OUTER_BOUND ( 'NONE', #198, .T. ) ;
#160 = ORIENTED_EDGE ( 'NONE', *, *, #29, .T. ) ;
#161 = APPROVAL_DATE_TIME ( #283, #125 ) ;
#162 = ORIENTED_EDGE ( 'NONE', *, *, #274, .T. ) ;
#163 = APPROVAL_STATUS ( 'not_yet_approved' ) ;
#164 = ORGANIZATION ( 'NEURÈENÝ', 'NEURÈENÝ', '' ) ;
#165 = PERSON_AND_ORGANIZATION ( #44, #164 ) ;
#166 = UNCERTAINTY_MEASURE_WITH_UNIT (LENGTH_MEASURE( 1.000000000000000082E-05 ), #226, 'distance_accuracy_value', 'NONE');
#167 = APPROVAL_ROLE ( '' ) ;
#168 = ADVANCED_FACE ( 'NONE', ( #28 ), #1, .T. ) ;
#169 = ORIENTED_EDGE ( 'NONE', *, *, #234, .F. ) ;
#170 = CARTESIAN_POINT ( 'NONE',  ( 0.000000000000000000, 0.000000000000000000, 7.199999999999984190 ) ) ;
#171 = ORIENTED_EDGE ( 'NONE', *, *, #200, .T. ) ;
#172 = ADVANCED_BREP_SHAPE_REPRESENTATION ( 'f787', ( #157, #288 ), #147 ) ;
#173 = DIRECTION ( 'NONE',  ( 1.000000000000000000, 0.000000000000000000, 0.000000000000000000 ) ) ;
#174 = APPROVAL ( #118, 'NEURÈENÝ' ) ;
#175 = AXIS2_PLACEMENT_3D ( 'NONE', #170, #196, #220 ) ;
#176 = DIRECTION ( 'NONE',  ( 0.000000000000000000, 0.000000000000000000, 1.000000000000000000 ) ) ;
#177 = ADVANCED_FACE ( 'NONE', ( #129 ), #57, .F. ) ;
#178 = CARTESIAN_POINT ( 'NONE',  ( -6.250000000000000000, 0.000000000000000000, 1006.999999999999886 ) ) ;
#179 = DIRECTION ( 'NONE',  ( 1.000000000000000000, 0.000000000000000000, 0.000000000000000000 ) ) ;
#180 = CARTESIAN_POINT ( 'NONE',  ( -6.250000000000000000, 0.000000000000000000, 7.199999999999984190 ) ) ;
#181 = DIRECTION ( 'NONE',  ( -1.000000000000000000, 0.000000000000000000, 0.000000000000000000 ) ) ;
#182 = EDGE_CURVE ( 'NONE', #16, #69, #56, .T. ) ;
#183 = FACE_OUTER_BOUND ( 'NONE', #195, .T. ) ;
#184 = APPROVAL_PERSON_ORGANIZATION ( #146, #135, #240 ) ;
#185 = EDGE_LOOP ( 'NONE', ( #27, #93, #76, #253 ) ) ;
#186 = EDGE_LOOP ( 'NONE', ( #139, #100, #257, #255 ) ) ;
#187 = COORDINATED_UNIVERSAL_TIME_OFFSET ( 1, 0, .AHEAD. ) ;
#188 = EDGE_LOOP ( 'NONE', ( #66, #299 ) ) ;
#189 = EDGE_CURVE ( 'NONE', #149, #24, #121, .T. ) ;
#190 = PERSON_AND_ORGANIZATION_ROLE ( 'design_supplier' ) ;
#191 = CIRCLE ( 'NONE', #155, 0.1999999999999996503 ) ;
#192 = CIRCLE ( 'NONE', #18, 6.250000000000000000 ) ;
#193 = PRODUCT ( 'f787', 'f787', '', ( #251 ) ) ;
#194 = APPROVAL_STATUS ( 'not_yet_approved' ) ;
#195 = EDGE_LOOP ( 'NONE', ( #207, #141, #262, #43 ) ) ;
#196 = DIRECTION ( 'NONE',  ( 0.000000000000000000, 0.000000000000000000, 1.000000000000000000 ) ) ;
#197 = VECTOR ( 'NONE', #202, 1000.000000000000000 ) ;
#198 = EDGE_LOOP ( 'NONE', ( #124, #20 ) ) ;
#199 = DIRECTION ( 'NONE',  ( -1.000000000000000000, 0.000000000000000000, 0.000000000000000000 ) ) ;
#200 = EDGE_CURVE ( 'NONE', #148, #68, #158, .T. ) ;
#201 = CARTESIAN_POINT ( 'NONE',  ( 9.000000000000000000, 1.102182119232617714E-15, 7.000000000000000000 ) ) ;
#202 = DIRECTION ( 'NONE',  ( -0.000000000000000000, -0.000000000000000000, -1.000000000000000000 ) ) ;
#203 = FACE_OUTER_BOUND ( 'NONE', #53, .T. ) ;
#204 = LINE ( 'NONE', #270, #267 ) ;
#205 = DIRECTION ( 'NONE',  ( 1.000000000000000000, 0.000000000000000000, 0.000000000000000000 ) ) ;
#206 = CARTESIAN_POINT ( 'NONE',  ( 0.000000000000000000, 0.000000000000000000, 7.199999999999984190 ) ) ;
#207 = ORIENTED_EDGE ( 'NONE', *, *, #145, .F. ) ;
#208 = APPLICATION_CONTEXT ( 'configuration controlled 3d designs of mechanical parts and assemblies' ) ;
#209 = CARTESIAN_POINT ( 'NONE',  ( 0.000000000000000000, 0.000000000000000000, 0.000000000000000000 ) ) ;
#210 = AXIS2_PLACEMENT_3D ( 'NONE', #254, #279, #40 ) ;
#211 = PERSON_AND_ORGANIZATION ( #44, #164 ) ;
#212 = ORIENTED_EDGE ( 'NONE', *, *, #154, .T. ) ;
#213 = CC_DESIGN_PERSON_AND_ORGANIZATION_ASSIGNMENT ( #98, #305, ( #119 ) ) ;
#214 = DATE_AND_TIME ( #45, #260 ) ;
#215 = AXIS2_PLACEMENT_3D ( 'NONE', #102, #52, #127 ) ;
#216 = COORDINATED_UNIVERSAL_TIME_OFFSET ( 1, 0, .AHEAD. ) ;
#217 = VERTEX_POINT ( 'NONE', #242 ) ;
#218 = PLANE ( 'NONE',  #72 ) ;
#219 = CIRCLE ( 'NONE', #282, 6.450000000000000178 ) ;
#220 = DIRECTION ( 'NONE',  ( 1.000000000000000000, 0.000000000000000000, 0.000000000000000000 ) ) ;
#221 = CC_DESIGN_DATE_AND_TIME_ASSIGNMENT ( #214, #114, ( #116 ) ) ;
#222 = CARTESIAN_POINT ( 'NONE',  ( -6.250000000000000000, 0.000000000000000000, 1006.999999999999886 ) ) ;
#223 = CC_DESIGN_APPROVAL ( #135, ( #96 ) ) ;
#224 = DIRECTION ( 'NONE',  ( 1.000000000000000000, 0.000000000000000000, 0.000000000000000000 ) ) ;
#225 = DIRECTION ( 'NONE',  ( 0.000000000000000000, 0.000000000000000000, 1.000000000000000000 ) ) ;
#226 =( LENGTH_UNIT ( ) NAMED_UNIT ( * ) SI_UNIT ( .MILLI., .METRE. ) );
#227 = CARTESIAN_POINT ( 'NONE',  ( 0.000000000000000000, 0.000000000000000000, 1006.999999999999886 ) ) ;
#228 =( NAMED_UNIT ( * ) PLANE_ANGLE_UNIT ( ) SI_UNIT ( $, .RADIAN. ) );
#229 = ADVANCED_FACE ( 'NONE', ( #26 ), #218, .T. ) ;
#230 = AXIS2_PLACEMENT_3D ( 'NONE', #2, #77, #285 ) ;
#231 = APPROVAL_PERSON_ORGANIZATION ( #73, #125, #167 ) ;
#232 = CARTESIAN_POINT ( 'NONE',  ( -9.000000000000000000, 0.000000000000000000, 0.000000000000000000 ) ) ;
#233 = DIRECTION ( 'NONE',  ( -0.000000000000000000, -0.000000000000000000, -1.000000000000000000 ) ) ;
#234 = EDGE_CURVE ( 'NONE', #115, #217, #12, .T. ) ;
#235 = ORIENTED_EDGE ( 'NONE', *, *, #58, .T. ) ;
#236 = AXIS2_PLACEMENT_3D ( 'NONE', #247, #245, #107 ) ;
#237 = VERTEX_POINT ( 'NONE', #180 ) ;
#238 = EDGE_CURVE ( 'NONE', #24, #149, #219, .T. ) ;
#239 = APPROVAL_ROLE ( '' ) ;
#240 = APPROVAL_ROLE ( '' ) ;
#241 = AXIS2_PLACEMENT_3D ( 'NONE', #9, #248, #61 ) ;
#242 = CARTESIAN_POINT ( 'NONE',  ( 6.250000000000000000, 7.654042494670957606E-16, 1006.999999999999886 ) ) ;
#243 = CARTESIAN_POINT ( 'NONE',  ( 0.000000000000000000, 0.000000000000000000, 7.000000000000000000 ) ) ;
#244 = LOCAL_TIME ( 11, 41, 51.00000000000000000, #187 ) ;
#245 = DIRECTION ( 'NONE',  ( 0.000000000000000000, -1.000000000000000000, 0.000000000000000000 ) ) ;
#246 = VECTOR ( 'NONE', #233, 1000.000000000000000 ) ;
#247 = CARTESIAN_POINT ( 'NONE',  ( 6.450000000000000178, 0.000000000000000000, 7.199999999999984190 ) ) ;
#248 = DIRECTION ( 'NONE',  ( 0.000000000000000000, 0.000000000000000000, 1.000000000000000000 ) ) ;
#249 = DIRECTION ( 'NONE',  ( 1.000000000000000000, 0.000000000000000000, 0.000000000000000000 ) ) ;
#250 = CARTESIAN_POINT ( 'NONE',  ( 0.000000000000000000, 0.000000000000000000, 7.000000000000000000 ) ) ;
#251 = MECHANICAL_CONTEXT ( 'NONE', #208, 'mechanical' ) ;
#252 = CC_DESIGN_PERSON_AND_ORGANIZATION_ASSIGNMENT ( #87, #46, ( #193 ) ) ;
#253 = ORIENTED_EDGE ( 'NONE', *, *, #275, .F. ) ;
#254 = CARTESIAN_POINT ( 'NONE',  ( 0.000000000000000000, 0.000000000000000000, 1006.999999999999886 ) ) ;
#255 = ORIENTED_EDGE ( 'NONE', *, *, #94, .F. ) ;
#256 = PERSON_AND_ORGANIZATION ( #44, #164 ) ;
#257 = ORIENTED_EDGE ( 'NONE', *, *, #238, .F. ) ;
#258 = CLOSED_SHELL ( 'NONE', ( #177, #54, #306, #168, #111, #19, #302, #229, #11 ) ) ;
#259 = CALENDAR_DATE ( 2022, 7, 7 ) ;
#260 = LOCAL_TIME ( 11, 41, 51.00000000000000000, #42 ) ;
#261 = COORDINATED_UNIVERSAL_TIME_OFFSET ( 1, 0, .AHEAD. ) ;
#262 = ORIENTED_EDGE ( 'NONE', *, *, #94, .T. ) ;
#263 = CARTESIAN_POINT ( 'NONE',  ( 0.000000000000000000, 0.000000000000000000, 7.000000000000000000 ) ) ;
#264 = DIRECTION ( 'NONE',  ( 1.000000000000000000, 0.000000000000000000, 0.000000000000000000 ) ) ;
#265 = EDGE_CURVE ( 'NONE', #69, #16, #97, .T. ) ;
#266 = AXIS2_PLACEMENT_3D ( 'NONE', #250, #34, #181 ) ;
#267 = VECTOR ( 'NONE', #133, 1000.000000000000000 ) ;
#268 = PLANE ( 'NONE',  #293 ) ;
#269 = CARTESIAN_POINT ( 'NONE',  ( -6.450000000000000178, 7.898971854500428692E-16, 7.199999999999984190 ) ) ;
#270 = CARTESIAN_POINT ( 'NONE',  ( -9.000000000000000000, 0.000000000000000000, 7.000000000000000000 ) ) ;
#271 = AXIS2_PLACEMENT_3D ( 'NONE', #3, #105, #32 ) ;
#272 = DIRECTION ( 'NONE',  ( 1.000000000000000000, 0.000000000000000000, 0.000000000000000000 ) ) ;
#273 = DIRECTION ( 'NONE',  ( 0.000000000000000000, 0.000000000000000000, 1.000000000000000000 ) ) ;
#274 = EDGE_CURVE ( 'NONE', #14, #237, #192, .T. ) ;
#275 = EDGE_CURVE ( 'NONE', #68, #16, #204, .T. ) ;
#276 = DIRECTION ( 'NONE',  ( 0.000000000000000000, 0.000000000000000000, 1.000000000000000000 ) ) ;
#277 = AXIS2_PLACEMENT_3D ( 'NONE', #108, #292, #84 ) ;
#278 = EDGE_LOOP ( 'NONE', ( #79, #160 ) ) ;
#279 = DIRECTION ( 'NONE',  ( 0.000000000000000000, 0.000000000000000000, 1.000000000000000000 ) ) ;
#280 = ORIENTED_EDGE ( 'NONE', *, *, #58, .F. ) ;
#281 = CC_DESIGN_PERSON_AND_ORGANIZATION_ASSIGNMENT ( #23, #190, ( #96 ) ) ;
#282 = AXIS2_PLACEMENT_3D ( 'NONE', #33, #153, #205 ) ;
#283 = DATE_AND_TIME ( #123, #4 ) ;
#284 = ORIENTED_EDGE ( 'NONE', *, *, #275, .T. ) ;
#285 = DIRECTION ( 'NONE',  ( 1.000000000000000000, 0.000000000000000000, 0.000000000000000000 ) ) ;
#286 = CARTESIAN_POINT ( 'NONE',  ( 0.000000000000000000, 0.000000000000000000, 7.000000000000000000 ) ) ;
#287 = AXIS2_PLACEMENT_3D ( 'NONE', #243, #103, #173 ) ;
#288 = AXIS2_PLACEMENT_3D ( 'NONE', #36, #273, #249 ) ;
#289 = CARTESIAN_POINT ( 'NONE',  ( 9.000000000000000000, 1.102182119232617714E-15, 7.000000000000000000 ) ) ;
#290 = DIRECTION ( 'NONE',  ( 1.000000000000000000, 0.000000000000000000, -0.000000000000000000 ) ) ;
#291 = DIRECTION ( 'NONE',  ( 0.000000000000000000, 0.000000000000000000, 1.000000000000000000 ) ) ;
#292 = DIRECTION ( 'NONE',  ( -0.000000000000000000, -0.000000000000000000, -1.000000000000000000 ) ) ;
#293 = AXIS2_PLACEMENT_3D ( 'NONE', #5, #82, #290 ) ;
#294 = APPROVAL_PERSON_ORGANIZATION ( #211, #174, #239 ) ;
#295 = DIRECTION ( 'NONE',  ( 1.000000000000000000, 0.000000000000000000, -0.000000000000000000 ) ) ;
#296 = ORIENTED_EDGE ( 'NONE', *, *, #78, .T. ) ;
#297 = DIRECTION ( 'NONE',  ( 0.000000000000000000, 0.000000000000000000, 1.000000000000000000 ) ) ;
#298 = APPROVAL_DATE_TIME ( #144, #174 ) ;
#299 = ORIENTED_EDGE ( 'NONE', *, *, #189, .T. ) ;
#300 = APPROVAL_DATE_TIME ( #120, #135 ) ;
#301 = APPLICATION_CONTEXT ( 'configuration controlled 3d designs of mechanical parts and assemblies' ) ;
#302 = ADVANCED_FACE ( 'NONE', ( #8 ), #109, .T. ) ;
#303 = DATE_AND_TIME ( #75, #86 ) ;
#304 = DATE_TIME_ROLE ( 'creation_date' ) ;
#305 = PERSON_AND_ORGANIZATION_ROLE ( 'creator' ) ;
#306 = ADVANCED_FACE ( 'NONE', ( #62 ), #156, .T. ) ;
#307 = EDGE_LOOP ( 'NONE', ( #41, #126, #284, #112 ) ) ;
ENDSEC;
END-ISO-10303-21;
