ISO-10303-21;
HEADER;
FILE_DESCRIPTION (( 'STEP AP203' ),
    '1' );
FILE_NAME ('4dc0.STEP',
    '2023-02-12T11:35:10',
    ( '' ),
    ( '' ),
    'SwSTEP 2.0',
    'SolidWorks 2019',
    '' );
FILE_SCHEMA (( 'CONFIG_CONTROL_DESIGN' ));
ENDSEC;

DATA;
#1 = EDGE_CURVE ( 'NONE', #30, #76, #106, .T. ) ;
#2 = DIRECTION ( 'NONE',  ( 1.000000000000000000, 0.000000000000000000, 0.000000000000000000 ) ) ;
#3 = CARTESIAN_POINT ( 'NONE',  ( 0.000000000000000000, 0.000000000000000000, 5.000000000000000000 ) ) ;
#4 = CLOSED_SHELL ( 'NONE', ( #236, #96, #209, #166, #57, #124, #120 ) ) ;
#5 = LOCAL_TIME ( 12, 35, 10.00000000000000000, #212 ) ;
#6 = EDGE_CURVE ( 'NONE', #122, #104, #131, .T. ) ;
#7 = CARTESIAN_POINT ( 'NONE',  ( 0.000000000000000000, 0.000000000000000000, 0.000000000000000000 ) ) ;
#8 = APPROVAL_DATE_TIME ( #109, #182 ) ;
#9 = CARTESIAN_POINT ( 'NONE',  ( 0.000000000000000000, 0.000000000000000000, 0.000000000000000000 ) ) ;
#10 = PERSON_AND_ORGANIZATION ( #223, #216 ) ;
#11 = DIRECTION ( 'NONE',  ( 1.000000000000000000, 0.000000000000000000, 0.000000000000000000 ) ) ;
#12 = DATE_AND_TIME ( #175, #23 ) ;
#13 = CIRCLE ( 'NONE', #110, 4.500000000000000888 ) ;
#14 = CC_DESIGN_PERSON_AND_ORGANIZATION_ASSIGNMENT ( #136, #33, ( #117 ) ) ;
#15 = AXIS2_PLACEMENT_3D ( 'NONE', #18, #239, #172 ) ;
#16 = DIRECTION ( 'NONE',  ( 0.000000000000000000, 0.000000000000000000, 1.000000000000000000 ) ) ;
#17 = CC_DESIGN_DATE_AND_TIME_ASSIGNMENT ( #12, #180, ( #117 ) ) ;
#18 = CARTESIAN_POINT ( 'NONE',  ( 0.000000000000000000, 0.000000000000000000, 5.000000000000000000 ) ) ;
#19 = CC_DESIGN_APPROVAL ( #129, ( #49 ) ) ;
#20 = EDGE_LOOP ( 'NONE', ( #43, #185 ) ) ;
#21 = ORIENTED_EDGE ( 'NONE', *, *, #213, .F. ) ;
#22 = DIRECTION ( 'NONE',  ( -0.000000000000000000, -0.000000000000000000, -1.000000000000000000 ) ) ;
#23 = LOCAL_TIME ( 12, 35, 10.00000000000000000, #108 ) ;
#24 = DIRECTION ( 'NONE',  ( 0.000000000000000000, 0.000000000000000000, 1.000000000000000000 ) ) ;
#25 = ORIENTED_EDGE ( 'NONE', *, *, #215, .T. ) ;
#26 = AXIS2_PLACEMENT_3D ( 'NONE', #7, #206, #2 ) ;
#27 = APPLICATION_PROTOCOL_DEFINITION ( 'international standard', 'config_control_design', 1994, #222 ) ;
#28 = PLANE ( 'NONE',  #187 ) ;
#29 = CALENDAR_DATE ( 2023, 12, 2 ) ;
#30 = VERTEX_POINT ( 'NONE', #231 ) ;
#31 = PERSON_AND_ORGANIZATION ( #223, #216 ) ;
#32 = CARTESIAN_POINT ( 'NONE',  ( -4.500000000000000888, 0.000000000000000000, 400.0000000000000000 ) ) ;
#33 = PERSON_AND_ORGANIZATION_ROLE ( 'creator' ) ;
#34 = VECTOR ( 'NONE', #220, 1000.000000000000000 ) ;
#35 = CARTESIAN_POINT ( 'NONE',  ( 0.000000000000000000, 0.000000000000000000, 400.0000000000000000 ) ) ;
#36 = EDGE_LOOP ( 'NONE', ( #21, #255 ) ) ;
#37 = DIRECTION ( 'NONE',  ( -0.000000000000000000, -0.000000000000000000, -1.000000000000000000 ) ) ;
#38 = ORIENTED_EDGE ( 'NONE', *, *, #221, .T. ) ;
#39 = DIRECTION ( 'NONE',  ( 1.000000000000000000, 0.000000000000000000, 0.000000000000000000 ) ) ;
#40 = VECTOR ( 'NONE', #227, 1000.000000000000000 ) ;
#41 = FACE_OUTER_BOUND ( 'NONE', #20, .T. ) ;
#42 = EDGE_LOOP ( 'NONE', ( #165, #25 ) ) ;
#43 = ORIENTED_EDGE ( 'NONE', *, *, #138, .T. ) ;
#44 = EDGE_CURVE ( 'NONE', #30, #47, #73, .T. ) ;
#45 = CYLINDRICAL_SURFACE ( 'NONE', #234, 4.500000000000000888 ) ;
#46 = CYLINDRICAL_SURFACE ( 'NONE', #205, 7.000000000000000000 ) ;
#47 = VERTEX_POINT ( 'NONE', #52 ) ;
#48 =( GEOMETRIC_REPRESENTATION_CONTEXT ( 3 ) GLOBAL_UNCERTAINTY_ASSIGNED_CONTEXT ( ( #243 ) ) GLOBAL_UNIT_ASSIGNED_CONTEXT ( ( #188, #237, #148 ) ) REPRESENTATION_CONTEXT ( 'NONE', 'WORKASPACE' ) );
#49 = SECURITY_CLASSIFICATION ( '', '', #176 ) ;
#50 = APPLICATION_PROTOCOL_DEFINITION ( 'international standard', 'config_control_design', 1994, #238 ) ;
#51 = DATE_AND_TIME ( #210, #241 ) ;
#52 = CARTESIAN_POINT ( 'NONE',  ( 4.500000000000000888, 5.510910596163088569E-16, 5.000000000000000000 ) ) ;
#53 = PERSON_AND_ORGANIZATION ( #223, #216 ) ;
#54 = APPROVAL_ROLE ( '' ) ;
#55 = CARTESIAN_POINT ( 'NONE',  ( -7.000000000000000000, 0.000000000000000000, 5.000000000000000000 ) ) ;
#56 = ORIENTED_EDGE ( 'NONE', *, *, #89, .T. ) ;
#57 = ADVANCED_FACE ( 'NONE', ( #211 ), #28, .F. ) ;
#58 = FACE_OUTER_BOUND ( 'NONE', #219, .T. ) ;
#59 = PRODUCT ( '4dc0', '4dc0', '', ( #69 ) ) ;
#60 = LINE ( 'NONE', #143, #34 ) ;
#61 = CARTESIAN_POINT ( 'NONE',  ( 0.000000000000000000, 0.000000000000000000, 400.0000000000000000 ) ) ;
#62 = AXIS2_PLACEMENT_3D ( 'NONE', #145, #197, #80 ) ;
#63 = CARTESIAN_POINT ( 'NONE',  ( 0.000000000000000000, 0.000000000000000000, 400.0000000000000000 ) ) ;
#64 = DIRECTION ( 'NONE',  ( -1.000000000000000000, 0.000000000000000000, 0.000000000000000000 ) ) ;
#65 = DIRECTION ( 'NONE',  ( -0.000000000000000000, -0.000000000000000000, -1.000000000000000000 ) ) ;
#66 = EDGE_CURVE ( 'NONE', #202, #122, #230, .T. ) ;
#67 = APPROVAL_PERSON_ORGANIZATION ( #228, #182, #178 ) ;
#68 = ORIENTED_EDGE ( 'NONE', *, *, #195, .F. ) ;
#69 = MECHANICAL_CONTEXT ( 'NONE', #222, 'mechanical' ) ;
#70 = CIRCLE ( 'NONE', #15, 7.000000000000000000 ) ;
#71 = PRODUCT_RELATED_PRODUCT_CATEGORY ( 'detail', '', ( #59 ) ) ;
#72 = DIRECTION ( 'NONE',  ( 1.000000000000000000, 0.000000000000000000, 0.000000000000000000 ) ) ;
#73 = LINE ( 'NONE', #156, #40 ) ;
#74 = DATE_TIME_ROLE ( 'classification_date' ) ;
#75 = DESIGN_CONTEXT ( 'detailed design', #238, 'design' ) ;
#76 = VERTEX_POINT ( 'NONE', #32 ) ;
#77 = APPROVAL_DATE_TIME ( #92, #129 ) ;
#78 = CIRCLE ( 'NONE', #105, 7.000000000000000000 ) ;
#79 = CC_DESIGN_SECURITY_CLASSIFICATION ( #49, ( #207 ) ) ;
#80 = DIRECTION ( 'NONE',  ( 1.000000000000000000, 0.000000000000000000, 0.000000000000000000 ) ) ;
#81 = ORIENTED_EDGE ( 'NONE', *, *, #6, .F. ) ;
#82 = AXIS2_PLACEMENT_3D ( 'NONE', #84, #37, #97 ) ;
#83 = CARTESIAN_POINT ( 'NONE',  ( 0.000000000000000000, 0.000000000000000000, 5.000000000000000000 ) ) ;
#84 = CARTESIAN_POINT ( 'NONE',  ( 0.000000000000000000, 0.000000000000000000, 5.000000000000000000 ) ) ;
#85 = ORIENTED_EDGE ( 'NONE', *, *, #174, .F. ) ;
#86 = DIRECTION ( 'NONE',  ( 0.000000000000000000, 0.000000000000000000, 1.000000000000000000 ) ) ;
#87 = AXIS2_PLACEMENT_3D ( 'NONE', #229, #132, #72 ) ;
#88 = FACE_OUTER_BOUND ( 'NONE', #162, .T. ) ;
#89 = EDGE_CURVE ( 'NONE', #47, #189, #192, .T. ) ;
#90 = ORIENTED_EDGE ( 'NONE', *, *, #190, .F. ) ;
#91 = PERSON_AND_ORGANIZATION ( #223, #216 ) ;
#92 = DATE_AND_TIME ( #29, #5 ) ;
#93 = CALENDAR_DATE ( 2023, 12, 2 ) ;
#94 = APPROVAL_ROLE ( '' ) ;
#95 = PRODUCT_DEFINITION_SHAPE ( 'NONE', 'NONE',  #117 ) ;
#96 = ADVANCED_FACE ( 'NONE', ( #58 ), #170, .T. ) ;
#97 = DIRECTION ( 'NONE',  ( -1.000000000000000000, 0.000000000000000000, 0.000000000000000000 ) ) ;
#98 = DIRECTION ( 'NONE',  ( -1.000000000000000000, 0.000000000000000000, 0.000000000000000000 ) ) ;
#99 = CARTESIAN_POINT ( 'NONE',  ( -7.000000000000000000, 0.000000000000000000, 5.000000000000000000 ) ) ;
#100 = APPROVAL_PERSON_ORGANIZATION ( #114, #155, #54 ) ;
#101 = ORIENTED_EDGE ( 'NONE', *, *, #1, .F. ) ;
#102 = EDGE_LOOP ( 'NONE', ( #81, #254 ) ) ;
#103 = CC_DESIGN_PERSON_AND_ORGANIZATION_ASSIGNMENT ( #53, #194, ( #49 ) ) ;
#104 = VERTEX_POINT ( 'NONE', #183 ) ;
#105 = AXIS2_PLACEMENT_3D ( 'NONE', #128, #24, #225 ) ;
#106 = CIRCLE ( 'NONE', #159, 4.500000000000000888 ) ;
#107 = VERTEX_POINT ( 'NONE', #217 ) ;
#108 = COORDINATED_UNIVERSAL_TIME_OFFSET ( 1, 0, .AHEAD. ) ;
#109 = DATE_AND_TIME ( #226, #142 ) ;
#110 = AXIS2_PLACEMENT_3D ( 'NONE', #63, #16, #39 ) ;
#111 = CC_DESIGN_APPROVAL ( #182, ( #207 ) ) ;
#112 = PERSON_AND_ORGANIZATION_ROLE ( 'design_owner' ) ;
#113 = ORIENTED_EDGE ( 'NONE', *, *, #195, .T. ) ;
#114 = PERSON_AND_ORGANIZATION ( #223, #216 ) ;
#115 = LOCAL_TIME ( 12, 35, 10.00000000000000000, #135 ) ;
#116 = DIRECTION ( 'NONE',  ( 1.000000000000000000, 0.000000000000000000, -0.000000000000000000 ) ) ;
#117 = PRODUCT_DEFINITION ( 'NEZNÁMÝ', '', #207, #75 ) ;
#118 = ORIENTED_EDGE ( 'NONE', *, *, #44, .T. ) ;
#119 = FACE_OUTER_BOUND ( 'NONE', #42, .T. ) ;
#120 = ADVANCED_FACE ( 'NONE', ( #41 ), #123, .T. ) ;
#121 = VECTOR ( 'NONE', #65, 1000.000000000000000 ) ;
#122 = VERTEX_POINT ( 'NONE', #253 ) ;
#123 = PLANE ( 'NONE',  #251 ) ;
#124 = ADVANCED_FACE ( 'NONE', ( #252 ), #168, .T. ) ;
#125 = CARTESIAN_POINT ( 'NONE',  ( 0.000000000000000000, 0.000000000000000000, 400.0000000000000000 ) ) ;
#126 = ORIENTED_EDGE ( 'NONE', *, *, #138, .F. ) ;
#127 = CARTESIAN_POINT ( 'NONE',  ( -4.500000000000000888, 0.000000000000000000, 400.0000000000000000 ) ) ;
#128 = CARTESIAN_POINT ( 'NONE',  ( 0.000000000000000000, 0.000000000000000000, 5.000000000000000000 ) ) ;
#129 = APPROVAL ( #157, 'NEURÈENÝ' ) ;
#130 = DIRECTION ( 'NONE',  ( -0.000000000000000000, -0.000000000000000000, -1.000000000000000000 ) ) ;
#131 = CIRCLE ( 'NONE', #235, 7.000000000000000000 ) ;
#132 = DIRECTION ( 'NONE',  ( 0.000000000000000000, 0.000000000000000000, 1.000000000000000000 ) ) ;
#133 = COORDINATED_UNIVERSAL_TIME_OFFSET ( 1, 0, .AHEAD. ) ;
#134 = CC_DESIGN_DATE_AND_TIME_ASSIGNMENT ( #246, #74, ( #49 ) ) ;
#135 = COORDINATED_UNIVERSAL_TIME_OFFSET ( 1, 0, .AHEAD. ) ;
#136 = PERSON_AND_ORGANIZATION ( #223, #216 ) ;
#137 = DIRECTION ( 'NONE',  ( 0.000000000000000000, 0.000000000000000000, 1.000000000000000000 ) ) ;
#138 = EDGE_CURVE ( 'NONE', #76, #30, #13, .T. ) ;
#139 = DIRECTION ( 'NONE',  ( 1.000000000000000000, 0.000000000000000000, 0.000000000000000000 ) ) ;
#140 = CC_DESIGN_APPROVAL ( #155, ( #117 ) ) ;
#141 = VECTOR ( 'NONE', #214, 1000.000000000000000 ) ;
#142 = LOCAL_TIME ( 12, 35, 10.00000000000000000, #133 ) ;
#143 = CARTESIAN_POINT ( 'NONE',  ( 7.000000000000000000, 8.572527594031473190E-16, 5.000000000000000000 ) ) ;
#144 = CIRCLE ( 'NONE', #26, 7.000000000000000000 ) ;
#145 = CARTESIAN_POINT ( 'NONE',  ( 0.000000000000000000, 0.000000000000000000, 5.000000000000000000 ) ) ;
#146 = MANIFOLD_SOLID_BREP ( 'Pøidat vysunutím3', #4 ) ;
#147 = EDGE_LOOP ( 'NONE', ( #101, #118, #56, #68 ) ) ;
#148 =( NAMED_UNIT ( * ) SI_UNIT ( $, .STERADIAN. ) SOLID_ANGLE_UNIT ( ) );
#149 = APPROVAL_PERSON_ORGANIZATION ( #10, #129, #94 ) ;
#150 = ORIENTED_EDGE ( 'NONE', *, *, #66, .T. ) ;
#151 = CC_DESIGN_PERSON_AND_ORGANIZATION_ASSIGNMENT ( #193, #112, ( #59 ) ) ;
#152 = ADVANCED_BREP_SHAPE_REPRESENTATION ( '4dc0', ( #146, #87 ), #48 ) ;
#153 = COORDINATED_UNIVERSAL_TIME_OFFSET ( 1, 0, .AHEAD. ) ;
#154 = APPROVAL_DATE_TIME ( #51, #155 ) ;
#155 = APPROVAL ( #242, 'NEURÈENÝ' ) ;
#156 = CARTESIAN_POINT ( 'NONE',  ( 4.500000000000000888, 5.510910596163088569E-16, 400.0000000000000000 ) ) ;
#157 = APPROVAL_STATUS ( 'not_yet_approved' ) ;
#158 = CIRCLE ( 'NONE', #250, 4.500000000000000888 ) ;
#159 = AXIS2_PLACEMENT_3D ( 'NONE', #232, #161, #139 ) ;
#160 = PERSON_AND_ORGANIZATION_ROLE ( 'design_supplier' ) ;
#161 = DIRECTION ( 'NONE',  ( 0.000000000000000000, 0.000000000000000000, 1.000000000000000000 ) ) ;
#162 = EDGE_LOOP ( 'NONE', ( #85, #90, #150, #201 ) ) ;
#163 = EDGE_LOOP ( 'NONE', ( #248, #126, #113, #240 ) ) ;
#164 = FACE_BOUND ( 'NONE', #36, .T. ) ;
#165 = ORIENTED_EDGE ( 'NONE', *, *, #190, .T. ) ;
#166 = ADVANCED_FACE ( 'NONE', ( #164, #119 ), #198, .T. ) ;
#167 = DIRECTION ( 'NONE',  ( 0.000000000000000000, 0.000000000000000000, 1.000000000000000000 ) ) ;
#168 = CYLINDRICAL_SURFACE ( 'NONE', #169, 4.500000000000000888 ) ;
#169 = AXIS2_PLACEMENT_3D ( 'NONE', #61, #22, #98 ) ;
#170 = CYLINDRICAL_SURFACE ( 'NONE', #82, 7.000000000000000000 ) ;
#171 = FACE_OUTER_BOUND ( 'NONE', #147, .T. ) ;
#172 = DIRECTION ( 'NONE',  ( 1.000000000000000000, 0.000000000000000000, 0.000000000000000000 ) ) ;
#173 = LINE ( 'NONE', #127, #121 ) ;
#174 = EDGE_CURVE ( 'NONE', #107, #104, #60, .T. ) ;
#175 = CALENDAR_DATE ( 2023, 12, 2 ) ;
#176 = SECURITY_CLASSIFICATION_LEVEL ( 'unclassified' ) ;
#177 = DIRECTION ( 'NONE',  ( 0.000000000000000000, 0.000000000000000000, 1.000000000000000000 ) ) ;
#178 = APPROVAL_ROLE ( '' ) ;
#179 = CC_DESIGN_PERSON_AND_ORGANIZATION_ASSIGNMENT ( #91, #160, ( #207 ) ) ;
#180 = DATE_TIME_ROLE ( 'creation_date' ) ;
#181 = ORIENTED_EDGE ( 'NONE', *, *, #174, .T. ) ;
#182 = APPROVAL ( #191, 'NEURÈENÝ' ) ;
#183 = CARTESIAN_POINT ( 'NONE',  ( 7.000000000000000000, 8.572527594031473190E-16, 0.000000000000000000 ) ) ;
#184 = DIRECTION ( 'NONE',  ( -1.000000000000000000, 0.000000000000000000, 0.000000000000000000 ) ) ;
#185 = ORIENTED_EDGE ( 'NONE', *, *, #1, .T. ) ;
#186 = DIRECTION ( 'NONE',  ( -0.000000000000000000, -0.000000000000000000, -1.000000000000000000 ) ) ;
#187 = AXIS2_PLACEMENT_3D ( 'NONE', #9, #177, #245 ) ;
#188 =( LENGTH_UNIT ( ) NAMED_UNIT ( * ) SI_UNIT ( .MILLI., .METRE. ) );
#189 = VERTEX_POINT ( 'NONE', #200 ) ;
#190 = EDGE_CURVE ( 'NONE', #202, #107, #70, .T. ) ;
#191 = APPROVAL_STATUS ( 'not_yet_approved' ) ;
#192 = CIRCLE ( 'NONE', #62, 4.500000000000000888 ) ;
#193 = PERSON_AND_ORGANIZATION ( #223, #216 ) ;
#194 = PERSON_AND_ORGANIZATION_ROLE ( 'classification_officer' ) ;
#195 = EDGE_CURVE ( 'NONE', #76, #189, #173, .T. ) ;
#196 = AXIS2_PLACEMENT_3D ( 'NONE', #83, #167, #233 ) ;
#197 = DIRECTION ( 'NONE',  ( 0.000000000000000000, 0.000000000000000000, 1.000000000000000000 ) ) ;
#198 = PLANE ( 'NONE',  #196 ) ;
#199 = ORIENTED_EDGE ( 'NONE', *, *, #66, .F. ) ;
#200 = CARTESIAN_POINT ( 'NONE',  ( -4.500000000000000888, 0.000000000000000000, 5.000000000000000000 ) ) ;
#201 = ORIENTED_EDGE ( 'NONE', *, *, #6, .T. ) ;
#202 = VERTEX_POINT ( 'NONE', #99 ) ;
#203 = DIRECTION ( 'NONE',  ( 0.000000000000000000, 0.000000000000000000, 1.000000000000000000 ) ) ;
#204 = DIRECTION ( 'NONE',  ( 1.000000000000000000, 0.000000000000000000, 0.000000000000000000 ) ) ;
#205 = AXIS2_PLACEMENT_3D ( 'NONE', #3, #130, #64 ) ;
#206 = DIRECTION ( 'NONE',  ( 0.000000000000000000, 0.000000000000000000, 1.000000000000000000 ) ) ;
#207 = PRODUCT_DEFINITION_FORMATION_WITH_SPECIFIED_SOURCE ( 'LIBOVOLNÝ', '', #59, .NOT_KNOWN. ) ;
#208 = PERSON_AND_ORGANIZATION_ROLE ( 'creator' ) ;
#209 = ADVANCED_FACE ( 'NONE', ( #88 ), #46, .T. ) ;
#210 = CALENDAR_DATE ( 2023, 12, 2 ) ;
#211 = FACE_OUTER_BOUND ( 'NONE', #102, .T. ) ;
#212 = COORDINATED_UNIVERSAL_TIME_OFFSET ( 1, 0, .AHEAD. ) ;
#213 = EDGE_CURVE ( 'NONE', #189, #47, #158, .T. ) ;
#214 = DIRECTION ( 'NONE',  ( -0.000000000000000000, -0.000000000000000000, -1.000000000000000000 ) ) ;
#215 = EDGE_CURVE ( 'NONE', #107, #202, #78, .T. ) ;
#216 = ORGANIZATION ( 'NEURÈENÝ', 'NEURÈENÝ', '' ) ;
#217 = CARTESIAN_POINT ( 'NONE',  ( 7.000000000000000000, 8.572527594031473190E-16, 5.000000000000000000 ) ) ;
#218 = ORIENTED_EDGE ( 'NONE', *, *, #215, .F. ) ;
#219 = EDGE_LOOP ( 'NONE', ( #218, #181, #38, #199 ) ) ;
#220 = DIRECTION ( 'NONE',  ( -0.000000000000000000, -0.000000000000000000, -1.000000000000000000 ) ) ;
#221 = EDGE_CURVE ( 'NONE', #104, #122, #144, .T. ) ;
#222 = APPLICATION_CONTEXT ( 'configuration controlled 3d designs of mechanical parts and assemblies' ) ;
#223 = PERSON ( 'NEURÈENÝ', 'NEURÈENÝ', 'NEURÈENÝ', ('NEURÈENÝ'), ('NEURÈENÝ'), ('NEURÈENÝ') ) ;
#224 = CARTESIAN_POINT ( 'NONE',  ( 0.000000000000000000, 0.000000000000000000, 5.000000000000000000 ) ) ;
#225 = DIRECTION ( 'NONE',  ( 1.000000000000000000, 0.000000000000000000, 0.000000000000000000 ) ) ;
#226 = CALENDAR_DATE ( 2023, 12, 2 ) ;
#227 = DIRECTION ( 'NONE',  ( -0.000000000000000000, -0.000000000000000000, -1.000000000000000000 ) ) ;
#228 = PERSON_AND_ORGANIZATION ( #223, #216 ) ;
#229 = CARTESIAN_POINT ( 'NONE',  ( 0.000000000000000000, 0.000000000000000000, 0.000000000000000000 ) ) ;
#230 = LINE ( 'NONE', #55, #141 ) ;
#231 = CARTESIAN_POINT ( 'NONE',  ( 4.500000000000000888, 5.510910596163088569E-16, 400.0000000000000000 ) ) ;
#232 = CARTESIAN_POINT ( 'NONE',  ( 0.000000000000000000, 0.000000000000000000, 400.0000000000000000 ) ) ;
#233 = DIRECTION ( 'NONE',  ( 1.000000000000000000, 0.000000000000000000, -0.000000000000000000 ) ) ;
#234 = AXIS2_PLACEMENT_3D ( 'NONE', #125, #186, #184 ) ;
#235 = AXIS2_PLACEMENT_3D ( 'NONE', #247, #137, #11 ) ;
#236 = ADVANCED_FACE ( 'NONE', ( #171 ), #45, .T. ) ;
#237 =( NAMED_UNIT ( * ) PLANE_ANGLE_UNIT ( ) SI_UNIT ( $, .RADIAN. ) );
#238 = APPLICATION_CONTEXT ( 'configuration controlled 3d designs of mechanical parts and assemblies' ) ;
#239 = DIRECTION ( 'NONE',  ( 0.000000000000000000, 0.000000000000000000, 1.000000000000000000 ) ) ;
#240 = ORIENTED_EDGE ( 'NONE', *, *, #213, .T. ) ;
#241 = LOCAL_TIME ( 12, 35, 10.00000000000000000, #153 ) ;
#242 = APPROVAL_STATUS ( 'not_yet_approved' ) ;
#243 = UNCERTAINTY_MEASURE_WITH_UNIT (LENGTH_MEASURE( 1.000000000000000082E-05 ), #188, 'distance_accuracy_value', 'NONE');
#244 = CC_DESIGN_PERSON_AND_ORGANIZATION_ASSIGNMENT ( #31, #208, ( #207 ) ) ;
#245 = DIRECTION ( 'NONE',  ( 1.000000000000000000, 0.000000000000000000, -0.000000000000000000 ) ) ;
#246 = DATE_AND_TIME ( #93, #115 ) ;
#247 = CARTESIAN_POINT ( 'NONE',  ( 0.000000000000000000, 0.000000000000000000, 0.000000000000000000 ) ) ;
#248 = ORIENTED_EDGE ( 'NONE', *, *, #44, .F. ) ;
#249 = SHAPE_DEFINITION_REPRESENTATION ( #95, #152 ) ;
#250 = AXIS2_PLACEMENT_3D ( 'NONE', #224, #203, #204 ) ;
#251 = AXIS2_PLACEMENT_3D ( 'NONE', #35, #86, #116 ) ;
#252 = FACE_OUTER_BOUND ( 'NONE', #163, .T. ) ;
#253 = CARTESIAN_POINT ( 'NONE',  ( -7.000000000000000000, 0.000000000000000000, 0.000000000000000000 ) ) ;
#254 = ORIENTED_EDGE ( 'NONE', *, *, #221, .F. ) ;
#255 = ORIENTED_EDGE ( 'NONE', *, *, #89, .F. ) ;
ENDSEC;
END-ISO-10303-21;
