ISO-10303-21;
HEADER;
FILE_DESCRIPTION (( 'STEP AP203' ),
    '1' );
FILE_NAME ('c12c.STEP',
    '2022-07-07T09:34:48',
    ( '' ),
    ( '' ),
    'SwSTEP 2.0',
    'SolidWorks 2019',
    '' );
FILE_SCHEMA (( 'CONFIG_CONTROL_DESIGN' ));
ENDSEC;

DATA;
#1 = DIRECTION ( 'NONE',  ( -0.000000000000000000, -0.000000000000000000, -1.000000000000000000 ) ) ;
#2 = DIRECTION ( 'NONE',  ( 0.000000000000000000, 0.000000000000000000, 1.000000000000000000 ) ) ;
#3 = SECURITY_CLASSIFICATION_LEVEL ( 'unclassified' ) ;
#4 = CARTESIAN_POINT ( 'NONE',  ( 0.000000000000000000, 0.000000000000000000, 8.000000000000000000 ) ) ;
#5 = EDGE_CURVE ( 'NONE', #156, #298, #77, .T. ) ;
#6 = CIRCLE ( 'NONE', #167, 10.00000000000000000 ) ;
#7 = PLANE ( 'NONE',  #273 ) ;
#8 =( NAMED_UNIT ( * ) PLANE_ANGLE_UNIT ( ) SI_UNIT ( $, .RADIAN. ) );
#9 = VERTEX_POINT ( 'NONE', #276 ) ;
#10 = AXIS2_PLACEMENT_3D ( 'NONE', #259, #158, #280 ) ;
#11 = ORIENTED_EDGE ( 'NONE', *, *, #45, .T. ) ;
#12 = APPROVAL_DATE_TIME ( #221, #157 ) ;
#13 = DIRECTION ( 'NONE',  ( 0.000000000000000000, 0.000000000000000000, 1.000000000000000000 ) ) ;
#14 = CIRCLE ( 'NONE', #282, 13.00000000000000178 ) ;
#15 = EDGE_LOOP ( 'NONE', ( #117, #94 ) ) ;
#16 = CYLINDRICAL_SURFACE ( 'NONE', #120, 13.00000000000000178 ) ;
#17 = CC_DESIGN_PERSON_AND_ORGANIZATION_ASSIGNMENT ( #238, #213, ( #197 ) ) ;
#18 = CARTESIAN_POINT ( 'NONE',  ( 0.000000000000000000, 0.000000000000000000, 0.000000000000000000 ) ) ;
#19 = CARTESIAN_POINT ( 'NONE',  ( -13.00000000000000178, 0.000000000000000000, 8.000000000000000000 ) ) ;
#20 = AXIS2_PLACEMENT_3D ( 'NONE', #42, #132, #210 ) ;
#21 = AXIS2_PLACEMENT_3D ( 'NONE', #44, #235, #106 ) ;
#22 = DIRECTION ( 'NONE',  ( -0.000000000000000000, -0.000000000000000000, -1.000000000000000000 ) ) ;
#23 = CARTESIAN_POINT ( 'NONE',  ( -13.00000000000000178, 0.000000000000000000, 0.000000000000000000 ) ) ;
#24 = EDGE_CURVE ( 'NONE', #220, #92, #54, .T. ) ;
#25 = CARTESIAN_POINT ( 'NONE',  ( 10.00000000000000000, 1.224646799147353256E-15, 133.0000000000000000 ) ) ;
#26 = LOCAL_TIME ( 11, 34, 48.00000000000000000, #33 ) ;
#27 = CARTESIAN_POINT ( 'NONE',  ( 13.00000000000000178, 1.592040838891559293E-15, 0.000000000000000000 ) ) ;
#28 = MECHANICAL_CONTEXT ( 'NONE', #148, 'mechanical' ) ;
#29 = ORIENTED_EDGE ( 'NONE', *, *, #5, .T. ) ;
#30 = DATE_AND_TIME ( #264, #189 ) ;
#31 = PRODUCT_DEFINITION_FORMATION_WITH_SPECIFIED_SOURCE ( 'LIBOVOLNÝ', '', #50, .NOT_KNOWN. ) ;
#32 = PERSON_AND_ORGANIZATION ( #100, #242 ) ;
#33 = COORDINATED_UNIVERSAL_TIME_OFFSET ( 1, 0, .AHEAD. ) ;
#34 =( LENGTH_UNIT ( ) NAMED_UNIT ( * ) SI_UNIT ( .MILLI., .METRE. ) );
#35 = APPLICATION_CONTEXT ( 'configuration controlled 3d designs of mechanical parts and assemblies' ) ;
#36 = VERTEX_POINT ( 'NONE', #296 ) ;
#37 = VECTOR ( 'NONE', #1, 1000.000000000000000 ) ;
#38 = CARTESIAN_POINT ( 'NONE',  ( 0.000000000000000000, 0.000000000000000000, 133.0000000000000000 ) ) ;
#39 = DIRECTION ( 'NONE',  ( 0.000000000000000000, 0.000000000000000000, 1.000000000000000000 ) ) ;
#40 = EDGE_LOOP ( 'NONE', ( #240, #218, #29, #74 ) ) ;
#41 = DIRECTION ( 'NONE',  ( -1.000000000000000000, 0.000000000000000000, 0.000000000000000000 ) ) ;
#42 = CARTESIAN_POINT ( 'NONE',  ( 0.000000000000000000, 0.000000000000000000, 8.000000000000000000 ) ) ;
#43 = AXIS2_PLACEMENT_3D ( 'NONE', #135, #190, #254 ) ;
#44 = CARTESIAN_POINT ( 'NONE',  ( 0.000000000000000000, 0.000000000000000000, 8.000000000000000000 ) ) ;
#45 = EDGE_CURVE ( 'NONE', #36, #181, #119, .T. ) ;
#46 = DIRECTION ( 'NONE',  ( -0.000000000000000000, -0.000000000000000000, -1.000000000000000000 ) ) ;
#47 = CARTESIAN_POINT ( 'NONE',  ( 0.000000000000000000, 0.000000000000000000, 0.000000000000000000 ) ) ;
#48 = PRODUCT_DEFINITION ( 'NEZNÁMÝ', '', #31, #142 ) ;
#49 = TOROIDAL_SURFACE ( 'NONE', #166, 10.20000000000000107, 0.2000000000000000111 ) ;
#50 = PRODUCT ( 'c12c', 'c12c', '', ( #28 ) ) ;
#51 = APPLICATION_PROTOCOL_DEFINITION ( 'international standard', 'config_control_design', 1994, #35 ) ;
#52 = EDGE_CURVE ( 'NONE', #92, #243, #70, .T. ) ;
#53 = EDGE_LOOP ( 'NONE', ( #168, #252 ) ) ;
#54 = LINE ( 'NONE', #78, #263 ) ;
#55 = ADVANCED_FACE ( 'NONE', ( #176 ), #16, .T. ) ;
#56 = AXIS2_PLACEMENT_3D ( 'NONE', #164, #22, #62 ) ;
#57 = CARTESIAN_POINT ( 'NONE',  ( 0.000000000000000000, 0.000000000000000000, 8.000000000000000000 ) ) ;
#58 = CARTESIAN_POINT ( 'NONE',  ( 0.000000000000000000, 0.000000000000000000, 0.000000000000000000 ) ) ;
#59 = DIRECTION ( 'NONE',  ( -0.000000000000000000, -0.000000000000000000, -1.000000000000000000 ) ) ;
#60 = VERTEX_POINT ( 'NONE', #302 ) ;
#61 = DIRECTION ( 'NONE',  ( 1.000000000000000000, 0.000000000000000000, 0.000000000000000000 ) ) ;
#62 = DIRECTION ( 'NONE',  ( -1.000000000000000000, 0.000000000000000000, 0.000000000000000000 ) ) ;
#63 = EDGE_CURVE ( 'NONE', #9, #60, #206, .T. ) ;
#64 = CARTESIAN_POINT ( 'NONE',  ( 0.000000000000000000, 0.000000000000000000, 133.0000000000000000 ) ) ;
#65 = APPROVAL_PERSON_ORGANIZATION ( #172, #178, #93 ) ;
#66 = CARTESIAN_POINT ( 'NONE',  ( 0.000000000000000000, 0.000000000000000000, 8.199999999999999289 ) ) ;
#67 = DIRECTION ( 'NONE',  ( 0.000000000000000000, 0.000000000000000000, 1.000000000000000000 ) ) ;
#68 = EDGE_CURVE ( 'NONE', #300, #220, #6, .T. ) ;
#69 = COORDINATED_UNIVERSAL_TIME_OFFSET ( 1, 0, .AHEAD. ) ;
#70 = CIRCLE ( 'NONE', #102, 10.00000000000000000 ) ;
#71 = CALENDAR_DATE ( 2022, 7, 7 ) ;
#72 =( NAMED_UNIT ( * ) SI_UNIT ( $, .STERADIAN. ) SOLID_ANGLE_UNIT ( ) );
#73 = PERSON_AND_ORGANIZATION ( #100, #242 ) ;
#74 = ORIENTED_EDGE ( 'NONE', *, *, #110, .F. ) ;
#75 = DIRECTION ( 'NONE',  ( 0.000000000000000000, 0.000000000000000000, 1.000000000000000000 ) ) ;
#76 = CARTESIAN_POINT ( 'NONE',  ( 0.000000000000000000, 0.000000000000000000, 8.000000000000000000 ) ) ;
#77 = CIRCLE ( 'NONE', #90, 13.00000000000000178 ) ;
#78 = CARTESIAN_POINT ( 'NONE',  ( -10.00000000000000000, 0.000000000000000000, 133.0000000000000000 ) ) ;
#79 = AXIS2_PLACEMENT_3D ( 'NONE', #66, #67, #61 ) ;
#80 = ORIENTED_EDGE ( 'NONE', *, *, #24, .T. ) ;
#81 = CALENDAR_DATE ( 2022, 7, 7 ) ;
#82 = PRODUCT_RELATED_PRODUCT_CATEGORY ( 'detail', '', ( #50 ) ) ;
#83 = ORIENTED_EDGE ( 'NONE', *, *, #68, .T. ) ;
#84 = DIRECTION ( 'NONE',  ( 1.224646799147353207E-16, 1.000000000000000000, -0.000000000000000000 ) ) ;
#85 = LOCAL_TIME ( 11, 34, 48.00000000000000000, #69 ) ;
#86 = DIRECTION ( 'NONE',  ( -1.000000000000000000, 1.224646799147353207E-16, 0.000000000000000000 ) ) ;
#87 = CARTESIAN_POINT ( 'NONE',  ( 0.000000000000000000, 0.000000000000000000, 8.199999999999999289 ) ) ;
#88 = CC_DESIGN_APPROVAL ( #178, ( #31 ) ) ;
#89 = CYLINDRICAL_SURFACE ( 'NONE', #286, 10.00000000000000000 ) ;
#90 = AXIS2_PLACEMENT_3D ( 'NONE', #18, #13, #251 ) ;
#91 = CARTESIAN_POINT ( 'NONE',  ( 0.000000000000000000, 0.000000000000000000, 0.000000000000000000 ) ) ;
#92 = VERTEX_POINT ( 'NONE', #152 ) ;
#93 = APPROVAL_ROLE ( '' ) ;
#94 = ORIENTED_EDGE ( 'NONE', *, *, #5, .F. ) ;
#95 = EDGE_CURVE ( 'NONE', #220, #300, #216, .T. ) ;
#96 = ORIENTED_EDGE ( 'NONE', *, *, #275, .F. ) ;
#97 = ORIENTED_EDGE ( 'NONE', *, *, #95, .F. ) ;
#98 = ORIENTED_EDGE ( 'NONE', *, *, #95, .T. ) ;
#99 = DIRECTION ( 'NONE',  ( -0.000000000000000000, -0.000000000000000000, -1.000000000000000000 ) ) ;
#100 = PERSON ( 'NEURÈENÝ', 'NEURÈENÝ', 'NEURÈENÝ', ('NEURÈENÝ'), ('NEURÈENÝ'), ('NEURÈENÝ') ) ;
#101 = DIRECTION ( 'NONE',  ( 1.000000000000000000, 0.000000000000000000, 0.000000000000000000 ) ) ;
#102 = AXIS2_PLACEMENT_3D ( 'NONE', #226, #121, #101 ) ;
#103 = DIRECTION ( 'NONE',  ( -0.000000000000000000, -0.000000000000000000, -1.000000000000000000 ) ) ;
#104 = EDGE_CURVE ( 'NONE', #298, #156, #14, .T. ) ;
#105 = AXIS2_PLACEMENT_3D ( 'NONE', #64, #2, #163 ) ;
#106 = DIRECTION ( 'NONE',  ( -1.000000000000000000, 0.000000000000000000, 0.000000000000000000 ) ) ;
#107 = CYLINDRICAL_SURFACE ( 'NONE', #21, 13.00000000000000178 ) ;
#108 = LINE ( 'NONE', #187, #37 ) ;
#109 = CC_DESIGN_APPROVAL ( #157, ( #197 ) ) ;
#110 = EDGE_CURVE ( 'NONE', #181, #298, #203, .T. ) ;
#111 = CARTESIAN_POINT ( 'NONE',  ( 10.00000000000000000, 1.224646799147353256E-15, 133.0000000000000000 ) ) ;
#112 = PERSON_AND_ORGANIZATION_ROLE ( 'creator' ) ;
#113 = ORIENTED_EDGE ( 'NONE', *, *, #236, .F. ) ;
#114 = AXIS2_PLACEMENT_3D ( 'NONE', #87, #191, #160 ) ;
#115 = DATE_AND_TIME ( #71, #85 ) ;
#116 = DIRECTION ( 'NONE',  ( 0.000000000000000000, 0.000000000000000000, 1.000000000000000000 ) ) ;
#117 = ORIENTED_EDGE ( 'NONE', *, *, #104, .F. ) ;
#118 = EDGE_CURVE ( 'NONE', #300, #243, #278, .T. ) ;
#119 = CIRCLE ( 'NONE', #179, 13.00000000000000178 ) ;
#120 = AXIS2_PLACEMENT_3D ( 'NONE', #57, #99, #41 ) ;
#121 = DIRECTION ( 'NONE',  ( 0.000000000000000000, 0.000000000000000000, 1.000000000000000000 ) ) ;
#122 = APPROVAL_ROLE ( '' ) ;
#123 = EDGE_LOOP ( 'NONE', ( #113, #271, #295, #175 ) ) ;
#124 = DIRECTION ( 'NONE',  ( 1.000000000000000000, 0.000000000000000000, 0.000000000000000000 ) ) ;
#125 = ADVANCED_FACE ( 'NONE', ( #284 ), #307, .F. ) ;
#126 = SHAPE_DEFINITION_REPRESENTATION ( #159, #183 ) ;
#127 = ORIENTED_EDGE ( 'NONE', *, *, #104, .T. ) ;
#128 = MANIFOLD_SOLID_BREP ( 'Zaoblit1', #138 ) ;
#129 = CC_DESIGN_PERSON_AND_ORGANIZATION_ASSIGNMENT ( #73, #141, ( #31 ) ) ;
#130 = FACE_OUTER_BOUND ( 'NONE', #272, .T. ) ;
#131 = AXIS2_PLACEMENT_3D ( 'NONE', #151, #205, #229 ) ;
#132 = DIRECTION ( 'NONE',  ( -0.000000000000000000, -0.000000000000000000, -1.000000000000000000 ) ) ;
#133 =( GEOMETRIC_REPRESENTATION_CONTEXT ( 3 ) GLOBAL_UNCERTAINTY_ASSIGNED_CONTEXT ( ( #265 ) ) GLOBAL_UNIT_ASSIGNED_CONTEXT ( ( #34, #8, #72 ) ) REPRESENTATION_CONTEXT ( 'NONE', 'WORKASPACE' ) );
#134 = CARTESIAN_POINT ( 'NONE',  ( 0.000000000000000000, 0.000000000000000000, 8.199999999999999289 ) ) ;
#135 = CARTESIAN_POINT ( 'NONE',  ( 0.000000000000000000, 0.000000000000000000, 8.000000000000000000 ) ) ;
#136 = ADVANCED_FACE ( 'NONE', ( #237 ), #89, .T. ) ;
#137 = DIRECTION ( 'NONE',  ( 0.000000000000000000, 0.000000000000000000, 1.000000000000000000 ) ) ;
#138 = CLOSED_SHELL ( 'NONE', ( #247, #136, #294, #55, #304, #125, #279, #261, #255 ) ) ;
#139 = DATE_AND_TIME ( #293, #26 ) ;
#140 = EDGE_CURVE ( 'NONE', #243, #92, #257, .T. ) ;
#141 = PERSON_AND_ORGANIZATION_ROLE ( 'creator' ) ;
#142 = DESIGN_CONTEXT ( 'detailed design', #35, 'design' ) ;
#143 = APPROVAL_STATUS ( 'not_yet_approved' ) ;
#144 = AXIS2_PLACEMENT_3D ( 'NONE', #38, #225, #274 ) ;
#145 = APPROVAL_DATE_TIME ( #192, #219 ) ;
#146 = ORIENTED_EDGE ( 'NONE', *, *, #228, .F. ) ;
#147 = PERSON_AND_ORGANIZATION ( #100, #242 ) ;
#148 = APPLICATION_CONTEXT ( 'configuration controlled 3d designs of mechanical parts and assemblies' ) ;
#149 = ORIENTED_EDGE ( 'NONE', *, *, #52, .T. ) ;
#150 = CIRCLE ( 'NONE', #193, 0.2000000000000005107 ) ;
#151 = CARTESIAN_POINT ( 'NONE',  ( 0.000000000000000000, 0.000000000000000000, 8.000000000000000000 ) ) ;
#152 = CARTESIAN_POINT ( 'NONE',  ( -10.00000000000000000, 0.000000000000000000, 8.199999999999999289 ) ) ;
#153 = EDGE_LOOP ( 'NONE', ( #201, #11 ) ) ;
#154 = CC_DESIGN_SECURITY_CLASSIFICATION ( #197, ( #31 ) ) ;
#155 = APPROVAL_STATUS ( 'not_yet_approved' ) ;
#156 = VERTEX_POINT ( 'NONE', #27 ) ;
#157 = APPROVAL ( #155, 'NEURÈENÝ' ) ;
#158 = DIRECTION ( 'NONE',  ( 0.000000000000000000, -1.000000000000000000, 0.000000000000000000 ) ) ;
#159 = PRODUCT_DEFINITION_SHAPE ( 'NONE', 'NONE',  #48 ) ;
#160 = DIRECTION ( 'NONE',  ( 1.000000000000000000, 0.000000000000000000, 0.000000000000000000 ) ) ;
#161 = CC_DESIGN_APPROVAL ( #219, ( #48 ) ) ;
#162 = DIRECTION ( 'NONE',  ( -1.000000000000000000, 0.000000000000000000, 0.000000000000000000 ) ) ;
#163 = DIRECTION ( 'NONE',  ( 1.000000000000000000, 0.000000000000000000, -0.000000000000000000 ) ) ;
#164 = CARTESIAN_POINT ( 'NONE',  ( 0.000000000000000000, 0.000000000000000000, 133.0000000000000000 ) ) ;
#165 = PERSON_AND_ORGANIZATION_ROLE ( 'design_owner' ) ;
#166 = AXIS2_PLACEMENT_3D ( 'NONE', #134, #186, #283 ) ;
#167 = AXIS2_PLACEMENT_3D ( 'NONE', #180, #75, #250 ) ;
#168 = ORIENTED_EDGE ( 'NONE', *, *, #63, .T. ) ;
#169 = FACE_BOUND ( 'NONE', #53, .T. ) ;
#170 = FACE_OUTER_BOUND ( 'NONE', #153, .T. ) ;
#171 = APPROVAL_PERSON_ORGANIZATION ( #200, #157, #122 ) ;
#172 = PERSON_AND_ORGANIZATION ( #100, #242 ) ;
#173 = EDGE_CURVE ( 'NONE', #60, #9, #305, .T. ) ;
#174 = EDGE_LOOP ( 'NONE', ( #195, #146, #198, #127 ) ) ;
#175 = ORIENTED_EDGE ( 'NONE', *, *, #173, .F. ) ;
#176 = FACE_OUTER_BOUND ( 'NONE', #174, .T. ) ;
#177 = AXIS2_PLACEMENT_3D ( 'NONE', #91, #212, #291 ) ;
#178 = APPROVAL ( #262, 'NEURÈENÝ' ) ;
#179 = AXIS2_PLACEMENT_3D ( 'NONE', #76, #184, #253 ) ;
#180 = CARTESIAN_POINT ( 'NONE',  ( 0.000000000000000000, 0.000000000000000000, 133.0000000000000000 ) ) ;
#181 = VERTEX_POINT ( 'NONE', #232 ) ;
#182 = DATE_TIME_ROLE ( 'classification_date' ) ;
#183 = ADVANCED_BREP_SHAPE_REPRESENTATION ( 'c12c', ( #128, #177 ), #133 ) ;
#184 = DIRECTION ( 'NONE',  ( 0.000000000000000000, 0.000000000000000000, 1.000000000000000000 ) ) ;
#185 = CIRCLE ( 'NONE', #43, 13.00000000000000178 ) ;
#186 = DIRECTION ( 'NONE',  ( 0.000000000000000000, 0.000000000000000000, 1.000000000000000000 ) ) ;
#187 = CARTESIAN_POINT ( 'NONE',  ( 13.00000000000000178, 1.592040838891559293E-15, 8.000000000000000000 ) ) ;
#188 = DIRECTION ( 'NONE',  ( 1.000000000000000000, 0.000000000000000000, -0.000000000000000000 ) ) ;
#189 = LOCAL_TIME ( 11, 34, 48.00000000000000000, #287 ) ;
#190 = DIRECTION ( 'NONE',  ( 0.000000000000000000, 0.000000000000000000, 1.000000000000000000 ) ) ;
#191 = DIRECTION ( 'NONE',  ( 0.000000000000000000, 0.000000000000000000, 1.000000000000000000 ) ) ;
#192 = DATE_AND_TIME ( #239, #202 ) ;
#193 = AXIS2_PLACEMENT_3D ( 'NONE', #306, #84, #86 ) ;
#194 = ORIENTED_EDGE ( 'NONE', *, *, #236, .T. ) ;
#195 = ORIENTED_EDGE ( 'NONE', *, *, #223, .F. ) ;
#196 = ORIENTED_EDGE ( 'NONE', *, *, #63, .F. ) ;
#197 = SECURITY_CLASSIFICATION ( '', '', #3 ) ;
#198 = ORIENTED_EDGE ( 'NONE', *, *, #110, .T. ) ;
#199 = CC_DESIGN_PERSON_AND_ORGANIZATION_ASSIGNMENT ( #147, #246, ( #31 ) ) ;
#200 = PERSON_AND_ORGANIZATION ( #100, #242 ) ;
#201 = ORIENTED_EDGE ( 'NONE', *, *, #228, .T. ) ;
#202 = LOCAL_TIME ( 11, 34, 48.00000000000000000, #241 ) ;
#203 = LINE ( 'NONE', #19, #248 ) ;
#204 = ORIENTED_EDGE ( 'NONE', *, *, #68, .F. ) ;
#205 = DIRECTION ( 'NONE',  ( -0.000000000000000000, -0.000000000000000000, -1.000000000000000000 ) ) ;
#206 = CIRCLE ( 'NONE', #131, 10.20000000000000107 ) ;
#207 = TOROIDAL_SURFACE ( 'NONE', #79, 10.20000000000000107, 0.2000000000000000111 ) ;
#208 = DIRECTION ( 'NONE',  ( -0.000000000000000000, -0.000000000000000000, -1.000000000000000000 ) ) ;
#209 = CARTESIAN_POINT ( 'NONE',  ( 0.000000000000000000, 0.000000000000000000, 133.0000000000000000 ) ) ;
#210 = DIRECTION ( 'NONE',  ( 1.000000000000000000, 0.000000000000000000, 0.000000000000000000 ) ) ;
#211 = FACE_OUTER_BOUND ( 'NONE', #277, .T. ) ;
#212 = DIRECTION ( 'NONE',  ( 0.000000000000000000, 0.000000000000000000, 1.000000000000000000 ) ) ;
#213 = PERSON_AND_ORGANIZATION_ROLE ( 'classification_officer' ) ;
#214 = APPLICATION_PROTOCOL_DEFINITION ( 'international standard', 'config_control_design', 1994, #148 ) ;
#215 = ORIENTED_EDGE ( 'NONE', *, *, #118, .F. ) ;
#216 = CIRCLE ( 'NONE', #144, 10.00000000000000000 ) ;
#217 = DIRECTION ( 'NONE',  ( 1.000000000000000000, 0.000000000000000000, -0.000000000000000000 ) ) ;
#218 = ORIENTED_EDGE ( 'NONE', *, *, #223, .T. ) ;
#219 = APPROVAL ( #143, 'NEURÈENÝ' ) ;
#220 = VERTEX_POINT ( 'NONE', #260 ) ;
#221 = DATE_AND_TIME ( #81, #268 ) ;
#222 = AXIS2_PLACEMENT_3D ( 'NONE', #47, #137, #188 ) ;
#223 = EDGE_CURVE ( 'NONE', #36, #156, #108, .T. ) ;
#224 = ORIENTED_EDGE ( 'NONE', *, *, #52, .F. ) ;
#225 = DIRECTION ( 'NONE',  ( 0.000000000000000000, 0.000000000000000000, 1.000000000000000000 ) ) ;
#226 = CARTESIAN_POINT ( 'NONE',  ( 0.000000000000000000, 0.000000000000000000, 8.199999999999999289 ) ) ;
#227 = ORIENTED_EDGE ( 'NONE', *, *, #118, .T. ) ;
#228 = EDGE_CURVE ( 'NONE', #181, #36, #185, .T. ) ;
#229 = DIRECTION ( 'NONE',  ( 1.000000000000000000, 0.000000000000000000, 0.000000000000000000 ) ) ;
#230 = CYLINDRICAL_SURFACE ( 'NONE', #56, 10.00000000000000000 ) ;
#231 = CIRCLE ( 'NONE', #10, 0.2000000000000005107 ) ;
#232 = CARTESIAN_POINT ( 'NONE',  ( -13.00000000000000178, 0.000000000000000000, 8.000000000000000000 ) ) ;
#233 = CC_DESIGN_DATE_AND_TIME_ASSIGNMENT ( #115, #244, ( #48 ) ) ;
#234 = PLANE ( 'NONE',  #105 ) ;
#235 = DIRECTION ( 'NONE',  ( -0.000000000000000000, -0.000000000000000000, -1.000000000000000000 ) ) ;
#236 = EDGE_CURVE ( 'NONE', #92, #60, #150, .T. ) ;
#237 = FACE_OUTER_BOUND ( 'NONE', #292, .T. ) ;
#238 = PERSON_AND_ORGANIZATION ( #100, #242 ) ;
#239 = CALENDAR_DATE ( 2022, 7, 7 ) ;
#240 = ORIENTED_EDGE ( 'NONE', *, *, #45, .F. ) ;
#241 = COORDINATED_UNIVERSAL_TIME_OFFSET ( 1, 0, .AHEAD. ) ;
#242 = ORGANIZATION ( 'NEURÈENÝ', 'NEURÈENÝ', '' ) ;
#243 = VERTEX_POINT ( 'NONE', #303 ) ;
#244 = DATE_TIME_ROLE ( 'creation_date' ) ;
#245 = ORIENTED_EDGE ( 'NONE', *, *, #24, .F. ) ;
#246 = PERSON_AND_ORGANIZATION_ROLE ( 'design_supplier' ) ;
#247 = ADVANCED_FACE ( 'NONE', ( #281 ), #49, .F. ) ;
#248 = VECTOR ( 'NONE', #103, 1000.000000000000000 ) ;
#249 = EDGE_LOOP ( 'NONE', ( #224, #194, #196, #96 ) ) ;
#250 = DIRECTION ( 'NONE',  ( 1.000000000000000000, 0.000000000000000000, 0.000000000000000000 ) ) ;
#251 = DIRECTION ( 'NONE',  ( 1.000000000000000000, 0.000000000000000000, 0.000000000000000000 ) ) ;
#252 = ORIENTED_EDGE ( 'NONE', *, *, #173, .T. ) ;
#253 = DIRECTION ( 'NONE',  ( 1.000000000000000000, 0.000000000000000000, 0.000000000000000000 ) ) ;
#254 = DIRECTION ( 'NONE',  ( 1.000000000000000000, 0.000000000000000000, 0.000000000000000000 ) ) ;
#255 = ADVANCED_FACE ( 'NONE', ( #258 ), #207, .F. ) ;
#256 = FACE_OUTER_BOUND ( 'NONE', #40, .T. ) ;
#257 = CIRCLE ( 'NONE', #114, 10.00000000000000000 ) ;
#258 = FACE_OUTER_BOUND ( 'NONE', #123, .T. ) ;
#259 = CARTESIAN_POINT ( 'NONE',  ( 10.20000000000000107, 0.000000000000000000, 8.199999999999999289 ) ) ;
#260 = CARTESIAN_POINT ( 'NONE',  ( -10.00000000000000000, 0.000000000000000000, 133.0000000000000000 ) ) ;
#261 = ADVANCED_FACE ( 'NONE', ( #211 ), #234, .T. ) ;
#262 = APPROVAL_STATUS ( 'not_yet_approved' ) ;
#263 = VECTOR ( 'NONE', #59, 1000.000000000000000 ) ;
#264 = CALENDAR_DATE ( 2022, 7, 7 ) ;
#265 = UNCERTAINTY_MEASURE_WITH_UNIT (LENGTH_MEASURE( 1.000000000000000082E-05 ), #34, 'distance_accuracy_value', 'NONE');
#266 = ORIENTED_EDGE ( 'NONE', *, *, #140, .T. ) ;
#267 = PERSON_AND_ORGANIZATION ( #100, #242 ) ;
#268 = LOCAL_TIME ( 11, 34, 48.00000000000000000, #301 ) ;
#269 = APPROVAL_DATE_TIME ( #139, #178 ) ;
#270 = CC_DESIGN_DATE_AND_TIME_ASSIGNMENT ( #30, #182, ( #197 ) ) ;
#271 = ORIENTED_EDGE ( 'NONE', *, *, #140, .F. ) ;
#272 = EDGE_LOOP ( 'NONE', ( #215, #97, #80, #149 ) ) ;
#273 = AXIS2_PLACEMENT_3D ( 'NONE', #4, #116, #217 ) ;
#274 = DIRECTION ( 'NONE',  ( 1.000000000000000000, 0.000000000000000000, 0.000000000000000000 ) ) ;
#275 = EDGE_CURVE ( 'NONE', #243, #9, #231, .T. ) ;
#276 = CARTESIAN_POINT ( 'NONE',  ( 10.20000000000000107, 0.000000000000000000, 8.000000000000000000 ) ) ;
#277 = EDGE_LOOP ( 'NONE', ( #98, #83 ) ) ;
#278 = LINE ( 'NONE', #111, #288 ) ;
#279 = ADVANCED_FACE ( 'NONE', ( #130 ), #230, .T. ) ;
#280 = DIRECTION ( 'NONE',  ( 0.000000000000000000, 0.000000000000000000, -1.000000000000000000 ) ) ;
#281 = FACE_OUTER_BOUND ( 'NONE', #249, .T. ) ;
#282 = AXIS2_PLACEMENT_3D ( 'NONE', #58, #39, #124 ) ;
#283 = DIRECTION ( 'NONE',  ( 1.000000000000000000, 0.000000000000000000, 0.000000000000000000 ) ) ;
#284 = FACE_OUTER_BOUND ( 'NONE', #15, .T. ) ;
#285 = PERSON_AND_ORGANIZATION ( #100, #242 ) ;
#286 = AXIS2_PLACEMENT_3D ( 'NONE', #209, #208, #162 ) ;
#287 = COORDINATED_UNIVERSAL_TIME_OFFSET ( 1, 0, .AHEAD. ) ;
#288 = VECTOR ( 'NONE', #46, 1000.000000000000000 ) ;
#289 = CC_DESIGN_PERSON_AND_ORGANIZATION_ASSIGNMENT ( #32, #112, ( #48 ) ) ;
#290 = APPROVAL_ROLE ( '' ) ;
#291 = DIRECTION ( 'NONE',  ( 1.000000000000000000, 0.000000000000000000, 0.000000000000000000 ) ) ;
#292 = EDGE_LOOP ( 'NONE', ( #204, #227, #266, #245 ) ) ;
#293 = CALENDAR_DATE ( 2022, 7, 7 ) ;
#294 = ADVANCED_FACE ( 'NONE', ( #256 ), #107, .T. ) ;
#295 = ORIENTED_EDGE ( 'NONE', *, *, #275, .T. ) ;
#296 = CARTESIAN_POINT ( 'NONE',  ( 13.00000000000000178, 1.592040838891559293E-15, 8.000000000000000000 ) ) ;
#297 = APPROVAL_PERSON_ORGANIZATION ( #285, #219, #290 ) ;
#298 = VERTEX_POINT ( 'NONE', #23 ) ;
#299 = CC_DESIGN_PERSON_AND_ORGANIZATION_ASSIGNMENT ( #267, #165, ( #50 ) ) ;
#300 = VERTEX_POINT ( 'NONE', #25 ) ;
#301 = COORDINATED_UNIVERSAL_TIME_OFFSET ( 1, 0, .AHEAD. ) ;
#302 = CARTESIAN_POINT ( 'NONE',  ( -10.20000000000000107, 1.249139735130300365E-15, 8.000000000000000000 ) ) ;
#303 = CARTESIAN_POINT ( 'NONE',  ( 10.00000000000000000, 1.224646799147353256E-15, 8.199999999999999289 ) ) ;
#304 = ADVANCED_FACE ( 'NONE', ( #169, #170 ), #7, .T. ) ;
#305 = CIRCLE ( 'NONE', #20, 10.20000000000000107 ) ;
#306 = CARTESIAN_POINT ( 'NONE',  ( -10.20000000000000107, 1.249139735130300365E-15, 8.199999999999999289 ) ) ;
#307 = PLANE ( 'NONE',  #222 ) ;
ENDSEC;
END-ISO-10303-21;
