ISO-10303-21;
HEADER;
FILE_DESCRIPTION (( 'STEP AP203' ),
    '1' );
FILE_NAME ('9b15.STEP',
    '2022-07-07T10:26:26',
    ( '' ),
    ( '' ),
    'SwSTEP 2.0',
    'SolidWorks 2019',
    '' );
FILE_SCHEMA (( 'CONFIG_CONTROL_DESIGN' ));
ENDSEC;

DATA;
#1 = CC_DESIGN_PERSON_AND_ORGANIZATION_ASSIGNMENT ( #233, #93, ( #56 ) ) ;
#2 = ORIENTED_EDGE ( 'NONE', *, *, #261, .T. ) ;
#3 = CARTESIAN_POINT ( 'NONE',  ( 0.000000000000000000, 0.000000000000000000, 128.0000000000000000 ) ) ;
#4 = AXIS2_PLACEMENT_3D ( 'NONE', #86, #274, #34 ) ;
#5 = CIRCLE ( 'NONE', #62, 2.000000000000000000 ) ;
#6 = ORIENTED_EDGE ( 'NONE', *, *, #185, .T. ) ;
#7 = DIRECTION ( 'NONE',  ( 1.000000000000000000, 0.000000000000000000, -0.000000000000000000 ) ) ;
#8 = EDGE_LOOP ( 'NONE', ( #49, #266, #144, #95 ) ) ;
#9 = DIRECTION ( 'NONE',  ( 0.000000000000000000, 0.000000000000000000, 1.000000000000000000 ) ) ;
#10 = ORIENTED_EDGE ( 'NONE', *, *, #68, .T. ) ;
#11 = EDGE_CURVE ( 'NONE', #241, #286, #5, .T. ) ;
#12 = CARTESIAN_POINT ( 'NONE',  ( 4.000000000000000000, 4.898587196589412829E-16, 0.000000000000000000 ) ) ;
#13 = APPLICATION_PROTOCOL_DEFINITION ( 'international standard', 'config_control_design', 1994, #141 ) ;
#14 = DIRECTION ( 'NONE',  ( 0.000000000000000000, 0.000000000000000000, 1.000000000000000000 ) ) ;
#15 = CARTESIAN_POINT ( 'NONE',  ( -2.000000000000000000, 0.000000000000000000, 128.0000000000000000 ) ) ;
#16 = CARTESIAN_POINT ( 'NONE',  ( 2.000000000000000000, 2.449293598294706414E-16, 128.0000000000000000 ) ) ;
#17 = DIRECTION ( 'NONE',  ( 1.000000000000000000, 0.000000000000000000, 0.000000000000000000 ) ) ;
#18 = CYLINDRICAL_SURFACE ( 'NONE', #148, 4.000000000000000000 ) ;
#19 = PERSON_AND_ORGANIZATION ( #287, #27 ) ;
#20 = ADVANCED_FACE ( 'NONE', ( #195 ), #39, .F. ) ;
#21 = PERSON_AND_ORGANIZATION ( #287, #27 ) ;
#22 = ORIENTED_EDGE ( 'NONE', *, *, #11, .T. ) ;
#23 = VERTEX_POINT ( 'NONE', #168 ) ;
#24 = EDGE_LOOP ( 'NONE', ( #169, #194 ) ) ;
#25 = VERTEX_POINT ( 'NONE', #264 ) ;
#26 = ORIENTED_EDGE ( 'NONE', *, *, #43, .F. ) ;
#27 = ORGANIZATION ( 'NEURÈENÝ', 'NEURÈENÝ', '' ) ;
#28 = ORIENTED_EDGE ( 'NONE', *, *, #243, .T. ) ;
#29 = PRODUCT_DEFINITION_SHAPE ( 'NONE', 'NONE',  #278 ) ;
#30 = ORIENTED_EDGE ( 'NONE', *, *, #174, .T. ) ;
#31 = FACE_BOUND ( 'NONE', #101, .T. ) ;
#32 = DIRECTION ( 'NONE',  ( 0.000000000000000000, 0.000000000000000000, 1.000000000000000000 ) ) ;
#33 = CC_DESIGN_APPROVAL ( #212, ( #56 ) ) ;
#34 = DIRECTION ( 'NONE',  ( -1.000000000000000000, 0.000000000000000000, 0.000000000000000000 ) ) ;
#35 = DIRECTION ( 'NONE',  ( -0.000000000000000000, -0.000000000000000000, -1.000000000000000000 ) ) ;
#36 = DATE_AND_TIME ( #252, #201 ) ;
#37 = CARTESIAN_POINT ( 'NONE',  ( -2.000000000000000000, 0.000000000000000000, 3.199999999999994404 ) ) ;
#38 = DIRECTION ( 'NONE',  ( -0.000000000000000000, -0.000000000000000000, -1.000000000000000000 ) ) ;
#39 = TOROIDAL_SURFACE ( 'NONE', #138, 2.200000000000000178, 0.2000000000000000111 ) ;
#40 = APPLICATION_PROTOCOL_DEFINITION ( 'international standard', 'config_control_design', 1994, #154 ) ;
#41 = SECURITY_CLASSIFICATION ( '', '', #189 ) ;
#42 = CARTESIAN_POINT ( 'NONE',  ( 0.000000000000000000, 0.000000000000000000, 3.199999999999994404 ) ) ;
#43 = EDGE_CURVE ( 'NONE', #286, #241, #55, .T. ) ;
#44 = COORDINATED_UNIVERSAL_TIME_OFFSET ( 1, 0, .AHEAD. ) ;
#45 = VECTOR ( 'NONE', #180, 1000.000000000000000 ) ;
#46 = AXIS2_PLACEMENT_3D ( 'NONE', #122, #219, #7 ) ;
#47 = EDGE_CURVE ( 'NONE', #289, #25, #295, .T. ) ;
#48 = COORDINATED_UNIVERSAL_TIME_OFFSET ( 1, 0, .AHEAD. ) ;
#49 = ORIENTED_EDGE ( 'NONE', *, *, #11, .F. ) ;
#50 = DIRECTION ( 'NONE',  ( 0.000000000000000000, 0.000000000000000000, 1.000000000000000000 ) ) ;
#51 = ADVANCED_FACE ( 'NONE', ( #104 ), #294, .F. ) ;
#52 = CARTESIAN_POINT ( 'NONE',  ( 0.000000000000000000, 0.000000000000000000, 3.000000000000000000 ) ) ;
#53 = ORIENTED_EDGE ( 'NONE', *, *, #71, .F. ) ;
#54 = DIRECTION ( 'NONE',  ( 1.000000000000000000, 0.000000000000000000, 0.000000000000000000 ) ) ;
#55 = CIRCLE ( 'NONE', #226, 2.000000000000000000 ) ;
#56 = PRODUCT_DEFINITION_FORMATION_WITH_SPECIFIED_SOURCE ( 'LIBOVOLNÝ', '', #268, .NOT_KNOWN. ) ;
#57 = EDGE_LOOP ( 'NONE', ( #2, #100 ) ) ;
#58 = FACE_OUTER_BOUND ( 'NONE', #171, .T. ) ;
#59 = COORDINATED_UNIVERSAL_TIME_OFFSET ( 1, 0, .AHEAD. ) ;
#60 = AXIS2_PLACEMENT_3D ( 'NONE', #246, #110, #155 ) ;
#61 = CARTESIAN_POINT ( 'NONE',  ( 0.000000000000000000, 0.000000000000000000, 3.000000000000000000 ) ) ;
#62 = AXIS2_PLACEMENT_3D ( 'NONE', #3, #74, #193 ) ;
#63 = CARTESIAN_POINT ( 'NONE',  ( 0.000000000000000000, 0.000000000000000000, 0.000000000000000000 ) ) ;
#64 = CARTESIAN_POINT ( 'NONE',  ( -4.000000000000000000, 0.000000000000000000, 3.000000000000000000 ) ) ;
#65 =( NAMED_UNIT ( * ) PLANE_ANGLE_UNIT ( ) SI_UNIT ( $, .RADIAN. ) );
#66 = DIRECTION ( 'NONE',  ( 0.000000000000000000, 0.000000000000000000, 1.000000000000000000 ) ) ;
#67 = DIRECTION ( 'NONE',  ( 1.000000000000000000, 0.000000000000000000, -0.000000000000000000 ) ) ;
#68 = EDGE_CURVE ( 'NONE', #23, #25, #114, .T. ) ;
#69 = LOCAL_TIME ( 12, 26, 26.00000000000000000, #48 ) ;
#70 = ORIENTED_EDGE ( 'NONE', *, *, #239, .T. ) ;
#71 = EDGE_CURVE ( 'NONE', #237, #262, #72, .T. ) ;
#72 = CIRCLE ( 'NONE', #306, 4.000000000000000000 ) ;
#73 = ORIENTED_EDGE ( 'NONE', *, *, #239, .F. ) ;
#74 = DIRECTION ( 'NONE',  ( 0.000000000000000000, 0.000000000000000000, 1.000000000000000000 ) ) ;
#75 = DIRECTION ( 'NONE',  ( 0.000000000000000000, -1.000000000000000000, 0.000000000000000000 ) ) ;
#76 = EDGE_CURVE ( 'NONE', #23, #216, #248, .T. ) ;
#77 = ORIENTED_EDGE ( 'NONE', *, *, #199, .T. ) ;
#78 = DIRECTION ( 'NONE',  ( 1.000000000000000000, 0.000000000000000000, 0.000000000000000000 ) ) ;
#79 = AXIS2_PLACEMENT_3D ( 'NONE', #133, #107, #153 ) ;
#80 = APPROVAL_PERSON_ORGANIZATION ( #160, #212, #272 ) ;
#81 = CYLINDRICAL_SURFACE ( 'NONE', #152, 2.000000000000000000 ) ;
#82 = CARTESIAN_POINT ( 'NONE',  ( 4.000000000000000000, 4.898587196589412829E-16, 3.000000000000000000 ) ) ;
#83 = PERSON_AND_ORGANIZATION ( #287, #27 ) ;
#84 = CARTESIAN_POINT ( 'NONE',  ( 2.000000000000000000, 2.449293598294706414E-16, 128.0000000000000000 ) ) ;
#85 = AXIS2_PLACEMENT_3D ( 'NONE', #42, #32, #208 ) ;
#86 = CARTESIAN_POINT ( 'NONE',  ( 0.000000000000000000, 0.000000000000000000, 3.000000000000000000 ) ) ;
#87 = LINE ( 'NONE', #131, #45 ) ;
#88 = DATE_AND_TIME ( #207, #135 ) ;
#89 = DIRECTION ( 'NONE',  ( 0.000000000000000000, 0.000000000000000000, 1.000000000000000000 ) ) ;
#90 = ADVANCED_FACE ( 'NONE', ( #245 ), #81, .T. ) ;
#91 = PERSON_AND_ORGANIZATION ( #287, #27 ) ;
#92 = PERSON_AND_ORGANIZATION ( #287, #27 ) ;
#93 = PERSON_AND_ORGANIZATION_ROLE ( 'design_supplier' ) ;
#94 = CLOSED_SHELL ( 'NONE', ( #20, #90, #307, #210, #96, #51, #149, #166, #188 ) ) ;
#95 = ORIENTED_EDGE ( 'NONE', *, *, #199, .F. ) ;
#96 = ADVANCED_FACE ( 'NONE', ( #31, #97 ), #288, .T. ) ;
#97 = FACE_OUTER_BOUND ( 'NONE', #57, .T. ) ;
#98 = EDGE_LOOP ( 'NONE', ( #121, #142, #293, #217 ) ) ;
#99 = ORIENTED_EDGE ( 'NONE', *, *, #47, .T. ) ;
#100 = ORIENTED_EDGE ( 'NONE', *, *, #71, .T. ) ;
#101 = EDGE_LOOP ( 'NONE', ( #70, #99 ) ) ;
#102 = EDGE_CURVE ( 'NONE', #262, #269, #273, .T. ) ;
#103 = DIRECTION ( 'NONE',  ( -0.000000000000000000, -0.000000000000000000, -1.000000000000000000 ) ) ;
#104 = FACE_OUTER_BOUND ( 'NONE', #24, .T. ) ;
#105 = VECTOR ( 'NONE', #204, 1000.000000000000000 ) ;
#106 = ADVANCED_BREP_SHAPE_REPRESENTATION ( '9b15', ( #247, #271 ), #177 ) ;
#107 = DIRECTION ( 'NONE',  ( -0.000000000000000000, -0.000000000000000000, -1.000000000000000000 ) ) ;
#108 = FACE_OUTER_BOUND ( 'NONE', #197, .T. ) ;
#109 = MECHANICAL_CONTEXT ( 'NONE', #141, 'mechanical' ) ;
#110 = DIRECTION ( 'NONE',  ( 0.000000000000000000, 0.000000000000000000, 1.000000000000000000 ) ) ;
#111 = CC_DESIGN_PERSON_AND_ORGANIZATION_ASSIGNMENT ( #92, #161, ( #41 ) ) ;
#112 = DIRECTION ( 'NONE',  ( 0.000000000000000000, 0.000000000000000000, 1.000000000000000000 ) ) ;
#113 = APPROVAL_STATUS ( 'not_yet_approved' ) ;
#114 = CIRCLE ( 'NONE', #214, 0.2000000000000000944 ) ;
#115 = APPROVAL_DATE_TIME ( #283, #256 ) ;
#116 = UNCERTAINTY_MEASURE_WITH_UNIT (LENGTH_MEASURE( 1.000000000000000082E-05 ), #276, 'distance_accuracy_value', 'NONE');
#117 = APPROVAL_PERSON_ORGANIZATION ( #303, #224, #209 ) ;
#118 = EDGE_CURVE ( 'NONE', #269, #146, #257, .T. ) ;
#119 = EDGE_LOOP ( 'NONE', ( #291, #6, #73, #190 ) ) ;
#120 = CIRCLE ( 'NONE', #162, 4.000000000000000000 ) ;
#121 = ORIENTED_EDGE ( 'NONE', *, *, #265, .F. ) ;
#122 = CARTESIAN_POINT ( 'NONE',  ( 0.000000000000000000, 0.000000000000000000, 0.000000000000000000 ) ) ;
#123 = CIRCLE ( 'NONE', #205, 0.2000000000000000944 ) ;
#124 = APPROVAL_PERSON_ORGANIZATION ( #21, #256, #184 ) ;
#125 = ORIENTED_EDGE ( 'NONE', *, *, #76, .F. ) ;
#126 = CARTESIAN_POINT ( 'NONE',  ( 0.000000000000000000, 0.000000000000000000, 128.0000000000000000 ) ) ;
#127 = EDGE_LOOP ( 'NONE', ( #53, #225, #28, #143 ) ) ;
#128 = ORIENTED_EDGE ( 'NONE', *, *, #185, .F. ) ;
#129 = FACE_OUTER_BOUND ( 'NONE', #98, .T. ) ;
#130 = DIRECTION ( 'NONE',  ( -0.000000000000000000, -0.000000000000000000, -1.000000000000000000 ) ) ;
#131 = CARTESIAN_POINT ( 'NONE',  ( 4.000000000000000000, 4.898587196589412829E-16, 3.000000000000000000 ) ) ;
#132 =( NAMED_UNIT ( * ) SI_UNIT ( $, .STERADIAN. ) SOLID_ANGLE_UNIT ( ) );
#133 = CARTESIAN_POINT ( 'NONE',  ( 0.000000000000000000, 0.000000000000000000, 128.0000000000000000 ) ) ;
#134 = CIRCLE ( 'NONE', #282, 2.200000000000000178 ) ;
#135 = LOCAL_TIME ( 12, 26, 26.00000000000000000, #156 ) ;
#136 = DATE_TIME_ROLE ( 'classification_date' ) ;
#137 = CIRCLE ( 'NONE', #300, 4.000000000000000000 ) ;
#138 = AXIS2_PLACEMENT_3D ( 'NONE', #290, #170, #267 ) ;
#139 = CALENDAR_DATE ( 2022, 7, 7 ) ;
#140 = DESIGN_CONTEXT ( 'detailed design', #154, 'design' ) ;
#141 = APPLICATION_CONTEXT ( 'configuration controlled 3d designs of mechanical parts and assemblies' ) ;
#142 = ORIENTED_EDGE ( 'NONE', *, *, #261, .F. ) ;
#143 = ORIENTED_EDGE ( 'NONE', *, *, #102, .F. ) ;
#144 = ORIENTED_EDGE ( 'NONE', *, *, #76, .T. ) ;
#145 = DIRECTION ( 'NONE',  ( 1.000000000000000000, 0.000000000000000000, 0.000000000000000000 ) ) ;
#146 = VERTEX_POINT ( 'NONE', #12 ) ;
#147 = DIRECTION ( 'NONE',  ( 0.000000000000000000, 0.000000000000000000, -1.000000000000000000 ) ) ;
#148 = AXIS2_PLACEMENT_3D ( 'NONE', #202, #130, #255 ) ;
#149 = ADVANCED_FACE ( 'NONE', ( #108 ), #176, .T. ) ;
#150 = DIRECTION ( 'NONE',  ( 1.000000000000000000, 0.000000000000000000, 0.000000000000000000 ) ) ;
#151 = DATE_AND_TIME ( #203, #297 ) ;
#152 = AXIS2_PLACEMENT_3D ( 'NONE', #172, #270, #296 ) ;
#153 = DIRECTION ( 'NONE',  ( -1.000000000000000000, 0.000000000000000000, 0.000000000000000000 ) ) ;
#154 = APPLICATION_CONTEXT ( 'configuration controlled 3d designs of mechanical parts and assemblies' ) ;
#155 = DIRECTION ( 'NONE',  ( 1.000000000000000000, 0.000000000000000000, 0.000000000000000000 ) ) ;
#156 = COORDINATED_UNIVERSAL_TIME_OFFSET ( 1, 0, .AHEAD. ) ;
#157 = CARTESIAN_POINT ( 'NONE',  ( 0.000000000000000000, 0.000000000000000000, 128.0000000000000000 ) ) ;
#158 = DIRECTION ( 'NONE',  ( -1.000000000000000000, 1.224646799147353207E-16, 0.000000000000000000 ) ) ;
#159 = CC_DESIGN_APPROVAL ( #256, ( #41 ) ) ;
#160 = PERSON_AND_ORGANIZATION ( #287, #27 ) ;
#161 = PERSON_AND_ORGANIZATION_ROLE ( 'classification_officer' ) ;
#162 = AXIS2_PLACEMENT_3D ( 'NONE', #304, #14, #150 ) ;
#163 = CIRCLE ( 'NONE', #85, 2.000000000000000000 ) ;
#164 = CC_DESIGN_SECURITY_CLASSIFICATION ( #41, ( #56 ) ) ;
#165 = CC_DESIGN_DATE_AND_TIME_ASSIGNMENT ( #235, #136, ( #41 ) ) ;
#166 = ADVANCED_FACE ( 'NONE', ( #277 ), #258, .T. ) ;
#167 = CARTESIAN_POINT ( 'NONE',  ( 0.000000000000000000, 0.000000000000000000, 3.000000000000000000 ) ) ;
#168 = CARTESIAN_POINT ( 'NONE',  ( 2.000000000000000000, 2.449293598294706414E-16, 3.199999999999994404 ) ) ;
#169 = ORIENTED_EDGE ( 'NONE', *, *, #118, .F. ) ;
#170 = DIRECTION ( 'NONE',  ( 0.000000000000000000, 0.000000000000000000, 1.000000000000000000 ) ) ;
#171 = EDGE_LOOP ( 'NONE', ( #128, #125, #10, #221 ) ) ;
#172 = CARTESIAN_POINT ( 'NONE',  ( 0.000000000000000000, 0.000000000000000000, 128.0000000000000000 ) ) ;
#173 = LOCAL_TIME ( 12, 26, 26.00000000000000000, #44 ) ;
#174 = EDGE_CURVE ( 'NONE', #216, #23, #163, .T. ) ;
#175 = APPROVAL_STATUS ( 'not_yet_approved' ) ;
#176 = CYLINDRICAL_SURFACE ( 'NONE', #79, 2.000000000000000000 ) ;
#177 =( GEOMETRIC_REPRESENTATION_CONTEXT ( 3 ) GLOBAL_UNCERTAINTY_ASSIGNED_CONTEXT ( ( #116 ) ) GLOBAL_UNIT_ASSIGNED_CONTEXT ( ( #276, #65, #132 ) ) REPRESENTATION_CONTEXT ( 'NONE', 'WORKASPACE' ) );
#178 = CYLINDRICAL_SURFACE ( 'NONE', #4, 4.000000000000000000 ) ;
#179 = DIRECTION ( 'NONE',  ( -0.000000000000000000, -0.000000000000000000, -1.000000000000000000 ) ) ;
#180 = DIRECTION ( 'NONE',  ( -0.000000000000000000, -0.000000000000000000, -1.000000000000000000 ) ) ;
#181 = FACE_OUTER_BOUND ( 'NONE', #127, .T. ) ;
#182 = DIRECTION ( 'NONE',  ( 1.000000000000000000, 0.000000000000000000, 0.000000000000000000 ) ) ;
#183 = COORDINATED_UNIVERSAL_TIME_OFFSET ( 1, 0, .AHEAD. ) ;
#184 = APPROVAL_ROLE ( '' ) ;
#185 = EDGE_CURVE ( 'NONE', #216, #289, #123, .T. ) ;
#186 = CALENDAR_DATE ( 2022, 7, 7 ) ;
#187 = PRODUCT_RELATED_PRODUCT_CATEGORY ( 'detail', '', ( #268 ) ) ;
#188 = ADVANCED_FACE ( 'NONE', ( #58 ), #242, .F. ) ;
#189 = SECURITY_CLASSIFICATION_LEVEL ( 'unclassified' ) ;
#190 = ORIENTED_EDGE ( 'NONE', *, *, #68, .F. ) ;
#191 = CARTESIAN_POINT ( 'NONE',  ( 0.000000000000000000, 0.000000000000000000, 3.000000000000000000 ) ) ;
#192 = AXIS2_PLACEMENT_3D ( 'NONE', #167, #263, #67 ) ;
#193 = DIRECTION ( 'NONE',  ( 1.000000000000000000, 0.000000000000000000, 0.000000000000000000 ) ) ;
#194 = ORIENTED_EDGE ( 'NONE', *, *, #243, .F. ) ;
#195 = FACE_OUTER_BOUND ( 'NONE', #119, .T. ) ;
#196 = EDGE_LOOP ( 'NONE', ( #215, #22 ) ) ;
#197 = EDGE_LOOP ( 'NONE', ( #240, #26, #77, #30 ) ) ;
#198 = CC_DESIGN_DATE_AND_TIME_ASSIGNMENT ( #36, #281, ( #278 ) ) ;
#199 = EDGE_CURVE ( 'NONE', #286, #216, #250, .T. ) ;
#200 = DIRECTION ( 'NONE',  ( 0.000000000000000000, 0.000000000000000000, 1.000000000000000000 ) ) ;
#201 = LOCAL_TIME ( 12, 26, 26.00000000000000000, #183 ) ;
#202 = CARTESIAN_POINT ( 'NONE',  ( 0.000000000000000000, 0.000000000000000000, 3.000000000000000000 ) ) ;
#203 = CALENDAR_DATE ( 2022, 7, 7 ) ;
#204 = DIRECTION ( 'NONE',  ( -0.000000000000000000, -0.000000000000000000, -1.000000000000000000 ) ) ;
#205 = AXIS2_PLACEMENT_3D ( 'NONE', #231, #280, #158 ) ;
#206 = CARTESIAN_POINT ( 'NONE',  ( 0.000000000000000000, 0.000000000000000000, 3.000000000000000000 ) ) ;
#207 = CALENDAR_DATE ( 2022, 7, 7 ) ;
#208 = DIRECTION ( 'NONE',  ( 1.000000000000000000, 0.000000000000000000, 0.000000000000000000 ) ) ;
#209 = APPROVAL_ROLE ( '' ) ;
#210 = ADVANCED_FACE ( 'NONE', ( #129 ), #18, .T. ) ;
#211 = AXIS2_PLACEMENT_3D ( 'NONE', #52, #103, #145 ) ;
#212 = APPROVAL ( #175, 'NEURÈENÝ' ) ;
#213 = CC_DESIGN_PERSON_AND_ORGANIZATION_ASSIGNMENT ( #19, #230, ( #268 ) ) ;
#214 = AXIS2_PLACEMENT_3D ( 'NONE', #292, #75, #147 ) ;
#215 = ORIENTED_EDGE ( 'NONE', *, *, #43, .T. ) ;
#216 = VERTEX_POINT ( 'NONE', #37 ) ;
#217 = ORIENTED_EDGE ( 'NONE', *, *, #118, .T. ) ;
#218 = AXIS2_PLACEMENT_3D ( 'NONE', #157, #112, #253 ) ;
#219 = DIRECTION ( 'NONE',  ( 0.000000000000000000, 0.000000000000000000, 1.000000000000000000 ) ) ;
#220 = CC_DESIGN_APPROVAL ( #224, ( #278 ) ) ;
#221 = ORIENTED_EDGE ( 'NONE', *, *, #47, .F. ) ;
#222 = CC_DESIGN_PERSON_AND_ORGANIZATION_ASSIGNMENT ( #83, #259, ( #56 ) ) ;
#223 = DIRECTION ( 'NONE',  ( 1.000000000000000000, 0.000000000000000000, 0.000000000000000000 ) ) ;
#224 = APPROVAL ( #113, 'NEURÈENÝ' ) ;
#225 = ORIENTED_EDGE ( 'NONE', *, *, #265, .T. ) ;
#226 = AXIS2_PLACEMENT_3D ( 'NONE', #126, #50, #223 ) ;
#227 = LINE ( 'NONE', #84, #260 ) ;
#228 = CARTESIAN_POINT ( 'NONE',  ( -2.200000000000000178, 2.694222958124177006E-16, 2.999999999999997335 ) ) ;
#229 = DIRECTION ( 'NONE',  ( 1.000000000000000000, 0.000000000000000000, 0.000000000000000000 ) ) ;
#230 = PERSON_AND_ORGANIZATION_ROLE ( 'design_owner' ) ;
#231 = CARTESIAN_POINT ( 'NONE',  ( -2.200000000000000178, 2.694222958124177006E-16, 3.199999999999994404 ) ) ;
#232 = CARTESIAN_POINT ( 'NONE',  ( -4.000000000000000000, 0.000000000000000000, 3.000000000000000000 ) ) ;
#233 = PERSON_AND_ORGANIZATION ( #287, #27 ) ;
#234 = AXIS2_PLACEMENT_3D ( 'NONE', #302, #89, #182 ) ;
#235 = DATE_AND_TIME ( #186, #173 ) ;
#236 = SHAPE_DEFINITION_REPRESENTATION ( #29, #106 ) ;
#237 = VERTEX_POINT ( 'NONE', #82 ) ;
#238 = CC_DESIGN_PERSON_AND_ORGANIZATION_ASSIGNMENT ( #91, #299, ( #278 ) ) ;
#239 = EDGE_CURVE ( 'NONE', #25, #289, #134, .T. ) ;
#240 = ORIENTED_EDGE ( 'NONE', *, *, #251, .F. ) ;
#241 = VERTEX_POINT ( 'NONE', #16 ) ;
#242 = TOROIDAL_SURFACE ( 'NONE', #60, 2.200000000000000178, 0.2000000000000000111 ) ;
#243 = EDGE_CURVE ( 'NONE', #146, #269, #120, .T. ) ;
#244 = CARTESIAN_POINT ( 'NONE',  ( 0.000000000000000000, 0.000000000000000000, 3.199999999999994404 ) ) ;
#245 = FACE_OUTER_BOUND ( 'NONE', #8, .T. ) ;
#246 = CARTESIAN_POINT ( 'NONE',  ( 0.000000000000000000, 0.000000000000000000, 3.199999999999994404 ) ) ;
#247 = MANIFOLD_SOLID_BREP ( 'Zaoblit1', #94 ) ;
#248 = CIRCLE ( 'NONE', #301, 2.000000000000000000 ) ;
#249 = APPROVAL_DATE_TIME ( #151, #212 ) ;
#250 = LINE ( 'NONE', #298, #285 ) ;
#251 = EDGE_CURVE ( 'NONE', #241, #23, #227, .T. ) ;
#252 = CALENDAR_DATE ( 2022, 7, 7 ) ;
#253 = DIRECTION ( 'NONE',  ( 1.000000000000000000, 0.000000000000000000, -0.000000000000000000 ) ) ;
#254 = DIRECTION ( 'NONE',  ( 0.000000000000000000, 0.000000000000000000, 1.000000000000000000 ) ) ;
#255 = DIRECTION ( 'NONE',  ( -1.000000000000000000, 0.000000000000000000, 0.000000000000000000 ) ) ;
#256 = APPROVAL ( #284, 'NEURÈENÝ' ) ;
#257 = CIRCLE ( 'NONE', #234, 4.000000000000000000 ) ;
#258 = PLANE ( 'NONE',  #218 ) ;
#259 = PERSON_AND_ORGANIZATION_ROLE ( 'creator' ) ;
#260 = VECTOR ( 'NONE', #179, 1000.000000000000000 ) ;
#261 = EDGE_CURVE ( 'NONE', #262, #237, #137, .T. ) ;
#262 = VERTEX_POINT ( 'NONE', #64 ) ;
#263 = DIRECTION ( 'NONE',  ( 0.000000000000000000, 0.000000000000000000, 1.000000000000000000 ) ) ;
#264 = CARTESIAN_POINT ( 'NONE',  ( 2.200000000000000178, 0.000000000000000000, 2.999999999999997335 ) ) ;
#265 = EDGE_CURVE ( 'NONE', #237, #146, #87, .T. ) ;
#266 = ORIENTED_EDGE ( 'NONE', *, *, #251, .T. ) ;
#267 = DIRECTION ( 'NONE',  ( 1.000000000000000000, 0.000000000000000000, 0.000000000000000000 ) ) ;
#268 = PRODUCT ( '9b15', '9b15', '', ( #109 ) ) ;
#269 = VERTEX_POINT ( 'NONE', #279 ) ;
#270 = DIRECTION ( 'NONE',  ( -0.000000000000000000, -0.000000000000000000, -1.000000000000000000 ) ) ;
#271 = AXIS2_PLACEMENT_3D ( 'NONE', #63, #254, #17 ) ;
#272 = APPROVAL_ROLE ( '' ) ;
#273 = LINE ( 'NONE', #232, #105 ) ;
#274 = DIRECTION ( 'NONE',  ( -0.000000000000000000, -0.000000000000000000, -1.000000000000000000 ) ) ;
#275 = DIRECTION ( 'NONE',  ( 1.000000000000000000, 0.000000000000000000, 0.000000000000000000 ) ) ;
#276 =( LENGTH_UNIT ( ) NAMED_UNIT ( * ) SI_UNIT ( .MILLI., .METRE. ) );
#277 = FACE_OUTER_BOUND ( 'NONE', #196, .T. ) ;
#278 = PRODUCT_DEFINITION ( 'NEZNÁMÝ', '', #56, #140 ) ;
#279 = CARTESIAN_POINT ( 'NONE',  ( -4.000000000000000000, 0.000000000000000000, 0.000000000000000000 ) ) ;
#280 = DIRECTION ( 'NONE',  ( 1.224646799147353207E-16, 1.000000000000000000, -0.000000000000000000 ) ) ;
#281 = DATE_TIME_ROLE ( 'creation_date' ) ;
#282 = AXIS2_PLACEMENT_3D ( 'NONE', #61, #38, #229 ) ;
#283 = DATE_AND_TIME ( #139, #69 ) ;
#284 = APPROVAL_STATUS ( 'not_yet_approved' ) ;
#285 = VECTOR ( 'NONE', #35, 1000.000000000000000 ) ;
#286 = VERTEX_POINT ( 'NONE', #15 ) ;
#287 = PERSON ( 'NEURÈENÝ', 'NEURÈENÝ', 'NEURÈENÝ', ('NEURÈENÝ'), ('NEURÈENÝ'), ('NEURÈENÝ') ) ;
#288 = PLANE ( 'NONE',  #192 ) ;
#289 = VERTEX_POINT ( 'NONE', #228 ) ;
#290 = CARTESIAN_POINT ( 'NONE',  ( 0.000000000000000000, 0.000000000000000000, 3.199999999999994404 ) ) ;
#291 = ORIENTED_EDGE ( 'NONE', *, *, #174, .F. ) ;
#292 = CARTESIAN_POINT ( 'NONE',  ( 2.200000000000000178, 0.000000000000000000, 3.199999999999994404 ) ) ;
#293 = ORIENTED_EDGE ( 'NONE', *, *, #102, .T. ) ;
#294 = PLANE ( 'NONE',  #46 ) ;
#295 = CIRCLE ( 'NONE', #211, 2.200000000000000178 ) ;
#296 = DIRECTION ( 'NONE',  ( -1.000000000000000000, 0.000000000000000000, 0.000000000000000000 ) ) ;
#297 = LOCAL_TIME ( 12, 26, 26.00000000000000000, #59 ) ;
#298 = CARTESIAN_POINT ( 'NONE',  ( -2.000000000000000000, 0.000000000000000000, 128.0000000000000000 ) ) ;
#299 = PERSON_AND_ORGANIZATION_ROLE ( 'creator' ) ;
#300 = AXIS2_PLACEMENT_3D ( 'NONE', #206, #66, #275 ) ;
#301 = AXIS2_PLACEMENT_3D ( 'NONE', #244, #9, #78 ) ;
#302 = CARTESIAN_POINT ( 'NONE',  ( 0.000000000000000000, 0.000000000000000000, 0.000000000000000000 ) ) ;
#303 = PERSON_AND_ORGANIZATION ( #287, #27 ) ;
#304 = CARTESIAN_POINT ( 'NONE',  ( 0.000000000000000000, 0.000000000000000000, 0.000000000000000000 ) ) ;
#305 = APPROVAL_DATE_TIME ( #88, #224 ) ;
#306 = AXIS2_PLACEMENT_3D ( 'NONE', #191, #200, #54 ) ;
#307 = ADVANCED_FACE ( 'NONE', ( #181 ), #178, .T. ) ;
ENDSEC;
END-ISO-10303-21;
