ISO-10303-21;
HEADER;
FILE_DESCRIPTION (( 'STEP AP203' ),
    '1' );
FILE_NAME ('8f75.STEP',
    '2022-07-07T10:37:10',
    ( '' ),
    ( '' ),
    'SwSTEP 2.0',
    'SolidWorks 2019',
    '' );
FILE_SCHEMA (( 'CONFIG_CONTROL_DESIGN' ));
ENDSEC;

DATA;
#1 = CARTESIAN_POINT ( 'NONE',  ( 0.000000000000000000, 0.000000000000000000, 1.500000000000000000 ) ) ;
#2 = PERSON_AND_ORGANIZATION ( #128, #36 ) ;
#3 = PRODUCT ( '8f75', '8f75', '', ( #96 ) ) ;
#4 = DIRECTION ( 'NONE',  ( 0.000000000000000000, 0.000000000000000000, 1.000000000000000000 ) ) ;
#5 = APPLICATION_CONTEXT ( 'configuration controlled 3d designs of mechanical parts and assemblies' ) ;
#6 = CIRCLE ( 'NONE', #73, 0.9000000000000000222 ) ;
#7 = DATE_AND_TIME ( #29, #147 ) ;
#8 = APPROVAL_STATUS ( 'not_yet_approved' ) ;
#9 = ORIENTED_EDGE ( 'NONE', *, *, #278, .F. ) ;
#10 = AXIS2_PLACEMENT_3D ( 'NONE', #182, #85, #84 ) ;
#11 = VECTOR ( 'NONE', #114, 1000.000000000000000 ) ;
#12 = EDGE_CURVE ( 'NONE', #201, #223, #154, .T. ) ;
#13 = PRODUCT_DEFINITION ( 'NEZNÁMÝ', '', #31, #159 ) ;
#14 = ORIENTED_EDGE ( 'NONE', *, *, #121, .F. ) ;
#15 = UNCERTAINTY_MEASURE_WITH_UNIT (LENGTH_MEASURE( 1.000000000000000082E-05 ), #118, 'distance_accuracy_value', 'NONE');
#16 = DIRECTION ( 'NONE',  ( -0.000000000000000000, -0.000000000000000000, -1.000000000000000000 ) ) ;
#17 = CARTESIAN_POINT ( 'NONE',  ( 1.100000000000000089, 0.000000000000000000, 1.500000000000003553 ) ) ;
#18 = ORIENTED_EDGE ( 'NONE', *, *, #266, .F. ) ;
#19 = CIRCLE ( 'NONE', #172, 2.000000000000000000 ) ;
#20 = ORIENTED_EDGE ( 'NONE', *, *, #66, .T. ) ;
#21 = CC_DESIGN_APPROVAL ( #224, ( #13 ) ) ;
#22 = CALENDAR_DATE ( 2022, 7, 7 ) ;
#23 = CARTESIAN_POINT ( 'NONE',  ( 0.000000000000000000, 0.000000000000000000, 1.700000000000007061 ) ) ;
#24 = FACE_OUTER_BOUND ( 'NONE', #178, .T. ) ;
#25 = DIRECTION ( 'NONE',  ( 1.000000000000000000, 0.000000000000000000, 0.000000000000000000 ) ) ;
#26 = ADVANCED_FACE ( 'NONE', ( #134 ), #135, .T. ) ;
#27 = DIRECTION ( 'NONE',  ( 0.000000000000000000, 0.000000000000000000, 1.000000000000000000 ) ) ;
#28 = DIRECTION ( 'NONE',  ( 0.000000000000000000, 0.000000000000000000, 1.000000000000000000 ) ) ;
#29 = CALENDAR_DATE ( 2022, 7, 7 ) ;
#30 = CARTESIAN_POINT ( 'NONE',  ( 0.000000000000000000, 0.000000000000000000, 0.000000000000000000 ) ) ;
#31 = PRODUCT_DEFINITION_FORMATION_WITH_SPECIFIED_SOURCE ( 'LIBOVOLNÝ', '', #3, .NOT_KNOWN. ) ;
#32 = ORIENTED_EDGE ( 'NONE', *, *, #307, .F. ) ;
#33 = ORIENTED_EDGE ( 'NONE', *, *, #307, .T. ) ;
#34 = AXIS2_PLACEMENT_3D ( 'NONE', #191, #70, #92 ) ;
#35 = ORIENTED_EDGE ( 'NONE', *, *, #303, .T. ) ;
#36 = ORGANIZATION ( 'NEURÈENÝ', 'NEURÈENÝ', '' ) ;
#37 = APPROVAL ( #212, 'NEURÈENÝ' ) ;
#38 = CYLINDRICAL_SURFACE ( 'NONE', #91, 2.000000000000000000 ) ;
#39 = CARTESIAN_POINT ( 'NONE',  ( 0.000000000000000000, 0.000000000000000000, 1.700000000000007061 ) ) ;
#40 = ORIENTED_EDGE ( 'NONE', *, *, #278, .T. ) ;
#41 = CARTESIAN_POINT ( 'NONE',  ( 2.000000000000000000, 2.449293598294706414E-16, 1.500000000000000000 ) ) ;
#42 = AXIS2_PLACEMENT_3D ( 'NONE', #88, #281, #68 ) ;
#43 = DATE_AND_TIME ( #256, #61 ) ;
#44 = DIRECTION ( 'NONE',  ( 0.000000000000000000, 0.000000000000000000, 1.000000000000000000 ) ) ;
#45 = EDGE_CURVE ( 'NONE', #106, #221, #19, .T. ) ;
#46 = CC_DESIGN_APPROVAL ( #37, ( #231 ) ) ;
#47 = APPROVAL_DATE_TIME ( #75, #224 ) ;
#48 = DIRECTION ( 'NONE',  ( 1.000000000000000000, 0.000000000000000000, 0.000000000000000000 ) ) ;
#49 = CARTESIAN_POINT ( 'NONE',  ( 0.000000000000000000, 0.000000000000000000, 126.5000000000000000 ) ) ;
#50 = CC_DESIGN_PERSON_AND_ORGANIZATION_ASSIGNMENT ( #242, #55, ( #3 ) ) ;
#51 = AXIS2_PLACEMENT_3D ( 'NONE', #39, #207, #298 ) ;
#52 = DIRECTION ( 'NONE',  ( -1.000000000000000000, 1.224646799147353207E-16, 0.000000000000000000 ) ) ;
#53 = AXIS2_PLACEMENT_3D ( 'NONE', #143, #236, #52 ) ;
#54 = LINE ( 'NONE', #148, #168 ) ;
#55 = PERSON_AND_ORGANIZATION_ROLE ( 'design_owner' ) ;
#56 =( NAMED_UNIT ( * ) SI_UNIT ( $, .STERADIAN. ) SOLID_ANGLE_UNIT ( ) );
#57 = ADVANCED_FACE ( 'NONE', ( #160 ), #81, .F. ) ;
#58 = ORIENTED_EDGE ( 'NONE', *, *, #199, .T. ) ;
#59 = ORIENTED_EDGE ( 'NONE', *, *, #12, .T. ) ;
#60 = AXIS2_PLACEMENT_3D ( 'NONE', #189, #161, #185 ) ;
#61 = LOCAL_TIME ( 12, 37, 10.00000000000000000, #254 ) ;
#62 = EDGE_LOOP ( 'NONE', ( #218, #296, #40, #292 ) ) ;
#63 = DIRECTION ( 'NONE',  ( 0.000000000000000000, 0.000000000000000000, 1.000000000000000000 ) ) ;
#64 = VERTEX_POINT ( 'NONE', #225 ) ;
#65 = ORIENTED_EDGE ( 'NONE', *, *, #66, .F. ) ;
#66 = EDGE_CURVE ( 'NONE', #201, #83, #271, .T. ) ;
#67 = EDGE_CURVE ( 'NONE', #150, #181, #6, .T. ) ;
#68 = DIRECTION ( 'NONE',  ( 1.000000000000000000, 0.000000000000000000, 0.000000000000000000 ) ) ;
#69 = PERSON_AND_ORGANIZATION ( #128, #36 ) ;
#70 = DIRECTION ( 'NONE',  ( -0.000000000000000000, -0.000000000000000000, -1.000000000000000000 ) ) ;
#71 = CYLINDRICAL_SURFACE ( 'NONE', #133, 0.9000000000000000222 ) ;
#72 = CARTESIAN_POINT ( 'NONE',  ( 0.000000000000000000, 0.000000000000000000, 1.500000000000000000 ) ) ;
#73 = AXIS2_PLACEMENT_3D ( 'NONE', #187, #63, #226 ) ;
#74 = FACE_OUTER_BOUND ( 'NONE', #246, .T. ) ;
#75 = DATE_AND_TIME ( #22, #247 ) ;
#76 = VECTOR ( 'NONE', #90, 1000.000000000000000 ) ;
#77 = DIRECTION ( 'NONE',  ( 0.000000000000000000, 0.000000000000000000, 1.000000000000000000 ) ) ;
#78 = ORIENTED_EDGE ( 'NONE', *, *, #228, .T. ) ;
#79 = CIRCLE ( 'NONE', #101, 2.000000000000000000 ) ;
#80 = ORIENTED_EDGE ( 'NONE', *, *, #199, .F. ) ;
#81 = TOROIDAL_SURFACE ( 'NONE', #51, 1.100000000000000089, 0.2000000000000000111 ) ;
#82 = APPROVAL_PERSON_ORGANIZATION ( #69, #224, #174 ) ;
#83 = VERTEX_POINT ( 'NONE', #17 ) ;
#84 = DIRECTION ( 'NONE',  ( 1.000000000000000000, 0.000000000000000000, -0.000000000000000000 ) ) ;
#85 = DIRECTION ( 'NONE',  ( 0.000000000000000000, 0.000000000000000000, 1.000000000000000000 ) ) ;
#86 = AXIS2_PLACEMENT_3D ( 'NONE', #274, #255, #87 ) ;
#87 = DIRECTION ( 'NONE',  ( 0.000000000000000000, 0.000000000000000000, -1.000000000000000000 ) ) ;
#88 = CARTESIAN_POINT ( 'NONE',  ( 0.000000000000000000, 0.000000000000000000, 1.700000000000007061 ) ) ;
#89 = APPROVAL_ROLE ( '' ) ;
#90 = DIRECTION ( 'NONE',  ( -0.000000000000000000, -0.000000000000000000, -1.000000000000000000 ) ) ;
#91 = AXIS2_PLACEMENT_3D ( 'NONE', #131, #16, #205 ) ;
#92 = DIRECTION ( 'NONE',  ( -1.000000000000000000, 0.000000000000000000, 0.000000000000000000 ) ) ;
#93 = DIRECTION ( 'NONE',  ( -0.000000000000000000, -0.000000000000000000, -1.000000000000000000 ) ) ;
#94 = DIRECTION ( 'NONE',  ( 0.000000000000000000, 0.000000000000000000, 1.000000000000000000 ) ) ;
#95 = CARTESIAN_POINT ( 'NONE',  ( -2.000000000000000000, 0.000000000000000000, 1.500000000000000000 ) ) ;
#96 = MECHANICAL_CONTEXT ( 'NONE', #5, 'mechanical' ) ;
#97 = CIRCLE ( 'NONE', #210, 1.100000000000000089 ) ;
#98 = APPROVAL_DATE_TIME ( #43, #202 ) ;
#99 = ORIENTED_EDGE ( 'NONE', *, *, #183, .T. ) ;
#100 = EDGE_LOOP ( 'NONE', ( #18, #272, #102, #269 ) ) ;
#101 = AXIS2_PLACEMENT_3D ( 'NONE', #239, #28, #120 ) ;
#102 = ORIENTED_EDGE ( 'NONE', *, *, #121, .T. ) ;
#103 = ORIENTED_EDGE ( 'NONE', *, *, #303, .F. ) ;
#104 = AXIS2_PLACEMENT_3D ( 'NONE', #173, #94, #141 ) ;
#105 = ORIENTED_EDGE ( 'NONE', *, *, #265, .T. ) ;
#106 = VERTEX_POINT ( 'NONE', #41 ) ;
#107 = ADVANCED_FACE ( 'NONE', ( #158 ), #230, .T. ) ;
#108 = DIRECTION ( 'NONE',  ( 1.000000000000000000, 0.000000000000000000, 0.000000000000000000 ) ) ;
#109 = CC_DESIGN_DATE_AND_TIME_ASSIGNMENT ( #113, #220, ( #13 ) ) ;
#110 = APPROVAL_STATUS ( 'not_yet_approved' ) ;
#111 = LINE ( 'NONE', #276, #288 ) ;
#112 = CIRCLE ( 'NONE', #273, 0.9000000000000000222 ) ;
#113 = DATE_AND_TIME ( #119, #295 ) ;
#114 = DIRECTION ( 'NONE',  ( -0.000000000000000000, -0.000000000000000000, -1.000000000000000000 ) ) ;
#115 = FACE_OUTER_BOUND ( 'NONE', #100, .T. ) ;
#116 = CARTESIAN_POINT ( 'NONE',  ( 0.9000000000000000222, 1.102182119232617788E-16, 1.700000000000007061 ) ) ;
#117 = AXIS2_PLACEMENT_3D ( 'NONE', #232, #4, #25 ) ;
#118 =( LENGTH_UNIT ( ) NAMED_UNIT ( * ) SI_UNIT ( .MILLI., .METRE. ) );
#119 = CALENDAR_DATE ( 2022, 7, 7 ) ;
#120 = DIRECTION ( 'NONE',  ( 1.000000000000000000, 0.000000000000000000, 0.000000000000000000 ) ) ;
#121 = EDGE_CURVE ( 'NONE', #181, #223, #111, .T. ) ;
#122 = APPLICATION_PROTOCOL_DEFINITION ( 'international standard', 'config_control_design', 1994, #261 ) ;
#123 = CIRCLE ( 'NONE', #219, 1.100000000000000089 ) ;
#124 = LOCAL_TIME ( 12, 37, 10.00000000000000000, #149 ) ;
#125 = CC_DESIGN_PERSON_AND_ORGANIZATION_ASSIGNMENT ( #200, #138, ( #31 ) ) ;
#126 = ORIENTED_EDGE ( 'NONE', *, *, #165, .F. ) ;
#127 = AXIS2_PLACEMENT_3D ( 'NONE', #294, #203, #279 ) ;
#128 = PERSON ( 'NEURÈENÝ', 'NEURÈENÝ', 'NEURÈENÝ', ('NEURÈENÝ'), ('NEURÈENÝ'), ('NEURÈENÝ') ) ;
#129 =( GEOMETRIC_REPRESENTATION_CONTEXT ( 3 ) GLOBAL_UNCERTAINTY_ASSIGNED_CONTEXT ( ( #15 ) ) GLOBAL_UNIT_ASSIGNED_CONTEXT ( ( #118, #241, #56 ) ) REPRESENTATION_CONTEXT ( 'NONE', 'WORKASPACE' ) );
#130 = FACE_OUTER_BOUND ( 'NONE', #62, .T. ) ;
#131 = CARTESIAN_POINT ( 'NONE',  ( 0.000000000000000000, 0.000000000000000000, 1.500000000000000000 ) ) ;
#132 = MANIFOLD_SOLID_BREP ( 'Zaoblit1', #186 ) ;
#133 = AXIS2_PLACEMENT_3D ( 'NONE', #306, #93, #284 ) ;
#134 = FACE_OUTER_BOUND ( 'NONE', #248, .T. ) ;
#135 = PLANE ( 'NONE',  #10 ) ;
#136 = CALENDAR_DATE ( 2022, 7, 7 ) ;
#137 = ORIENTED_EDGE ( 'NONE', *, *, #145, .F. ) ;
#138 = PERSON_AND_ORGANIZATION_ROLE ( 'design_supplier' ) ;
#139 = CARTESIAN_POINT ( 'NONE',  ( 0.9000000000000000222, 1.102182119232617788E-16, 126.5000000000000000 ) ) ;
#140 = PERSON_AND_ORGANIZATION ( #128, #36 ) ;
#141 = DIRECTION ( 'NONE',  ( 1.000000000000000000, 0.000000000000000000, -0.000000000000000000 ) ) ;
#142 = CC_DESIGN_DATE_AND_TIME_ASSIGNMENT ( #198, #240, ( #231 ) ) ;
#143 = CARTESIAN_POINT ( 'NONE',  ( -1.100000000000000089, 1.347111479062088503E-16, 1.700000000000007061 ) ) ;
#144 = CARTESIAN_POINT ( 'NONE',  ( -2.000000000000000000, 0.000000000000000000, 1.500000000000000000 ) ) ;
#145 = EDGE_CURVE ( 'NONE', #223, #201, #179, .T. ) ;
#146 = AXIS2_PLACEMENT_3D ( 'NONE', #23, #77, #175 ) ;
#147 = LOCAL_TIME ( 12, 37, 10.00000000000000000, #233 ) ;
#148 = CARTESIAN_POINT ( 'NONE',  ( 2.000000000000000000, 2.449293598294706414E-16, 1.500000000000000000 ) ) ;
#149 = COORDINATED_UNIVERSAL_TIME_OFFSET ( 1, 0, .AHEAD. ) ;
#150 = VERTEX_POINT ( 'NONE', #164 ) ;
#151 = CC_DESIGN_APPROVAL ( #202, ( #31 ) ) ;
#152 = CC_DESIGN_SECURITY_CLASSIFICATION ( #231, ( #31 ) ) ;
#153 = EDGE_LOOP ( 'NONE', ( #105, #35 ) ) ;
#154 = CIRCLE ( 'NONE', #127, 0.9000000000000000222 ) ;
#155 = ADVANCED_FACE ( 'NONE', ( #130 ), #38, .T. ) ;
#156 = ORIENTED_EDGE ( 'NONE', *, *, #67, .F. ) ;
#157 = ORIENTED_EDGE ( 'NONE', *, *, #45, .T. ) ;
#158 = FACE_OUTER_BOUND ( 'NONE', #243, .T. ) ;
#159 = DESIGN_CONTEXT ( 'detailed design', #261, 'design' ) ;
#160 = FACE_OUTER_BOUND ( 'NONE', #162, .T. ) ;
#161 = DIRECTION ( 'NONE',  ( -0.000000000000000000, -0.000000000000000000, -1.000000000000000000 ) ) ;
#162 = EDGE_LOOP ( 'NONE', ( #137, #33, #270, #65 ) ) ;
#163 = COORDINATED_UNIVERSAL_TIME_OFFSET ( 1, 0, .AHEAD. ) ;
#164 = CARTESIAN_POINT ( 'NONE',  ( 0.9000000000000000222, 1.102182119232617788E-16, 126.5000000000000000 ) ) ;
#165 = EDGE_CURVE ( 'NONE', #227, #64, #257, .T. ) ;
#166 = PERSON_AND_ORGANIZATION ( #128, #36 ) ;
#167 = DIRECTION ( 'NONE',  ( 0.000000000000000000, 0.000000000000000000, 1.000000000000000000 ) ) ;
#168 = VECTOR ( 'NONE', #171, 1000.000000000000000 ) ;
#169 = DIRECTION ( 'NONE',  ( 0.000000000000000000, 0.000000000000000000, 1.000000000000000000 ) ) ;
#170 = ADVANCED_FACE ( 'NONE', ( #74 ), #194, .F. ) ;
#171 = DIRECTION ( 'NONE',  ( -0.000000000000000000, -0.000000000000000000, -1.000000000000000000 ) ) ;
#172 = AXIS2_PLACEMENT_3D ( 'NONE', #206, #211, #108 ) ;
#173 = CARTESIAN_POINT ( 'NONE',  ( 0.000000000000000000, 0.000000000000000000, 0.000000000000000000 ) ) ;
#174 = APPROVAL_ROLE ( '' ) ;
#175 = DIRECTION ( 'NONE',  ( 1.000000000000000000, 0.000000000000000000, 0.000000000000000000 ) ) ;
#176 = PERSON_AND_ORGANIZATION ( #128, #36 ) ;
#177 = ADVANCED_FACE ( 'NONE', ( #287 ), #71, .T. ) ;
#178 = EDGE_LOOP ( 'NONE', ( #253, #157 ) ) ;
#179 = CIRCLE ( 'NONE', #42, 0.9000000000000000222 ) ;
#180 = PRODUCT_RELATED_PRODUCT_CATEGORY ( 'detail', '', ( #3 ) ) ;
#181 = VERTEX_POINT ( 'NONE', #264 ) ;
#182 = CARTESIAN_POINT ( 'NONE',  ( 0.000000000000000000, 0.000000000000000000, 126.5000000000000000 ) ) ;
#183 = EDGE_CURVE ( 'NONE', #106, #64, #54, .T. ) ;
#184 = CARTESIAN_POINT ( 'NONE',  ( 0.000000000000000000, 0.000000000000000000, 0.000000000000000000 ) ) ;
#185 = DIRECTION ( 'NONE',  ( -1.000000000000000000, 0.000000000000000000, 0.000000000000000000 ) ) ;
#186 = CLOSED_SHELL ( 'NONE', ( #57, #177, #107, #155, #252, #170, #286, #26, #235 ) ) ;
#187 = CARTESIAN_POINT ( 'NONE',  ( 0.000000000000000000, 0.000000000000000000, 126.5000000000000000 ) ) ;
#188 = APPROVAL_ROLE ( '' ) ;
#189 = CARTESIAN_POINT ( 'NONE',  ( 0.000000000000000000, 0.000000000000000000, 1.500000000000000000 ) ) ;
#190 = SHAPE_DEFINITION_REPRESENTATION ( #195, #282 ) ;
#191 = CARTESIAN_POINT ( 'NONE',  ( 0.000000000000000000, 0.000000000000000000, 126.5000000000000000 ) ) ;
#192 = PLANE ( 'NONE',  #293 ) ;
#193 = CARTESIAN_POINT ( 'NONE',  ( -0.9000000000000000222, 0.000000000000000000, 1.700000000000007061 ) ) ;
#194 = PLANE ( 'NONE',  #104 ) ;
#195 = PRODUCT_DEFINITION_SHAPE ( 'NONE', 'NONE',  #13 ) ;
#196 = DIRECTION ( 'NONE',  ( 1.000000000000000000, 0.000000000000000000, 0.000000000000000000 ) ) ;
#197 = APPROVAL_PERSON_ORGANIZATION ( #2, #202, #188 ) ;
#198 = DATE_AND_TIME ( #136, #124 ) ;
#199 = EDGE_CURVE ( 'NONE', #64, #227, #79, .T. ) ;
#200 = PERSON_AND_ORGANIZATION ( #128, #36 ) ;
#201 = VERTEX_POINT ( 'NONE', #116 ) ;
#202 = APPROVAL ( #8, 'NEURÈENÝ' ) ;
#203 = DIRECTION ( 'NONE',  ( 0.000000000000000000, 0.000000000000000000, 1.000000000000000000 ) ) ;
#204 = CC_DESIGN_PERSON_AND_ORGANIZATION_ASSIGNMENT ( #176, #290, ( #231 ) ) ;
#205 = DIRECTION ( 'NONE',  ( -1.000000000000000000, 0.000000000000000000, 0.000000000000000000 ) ) ;
#206 = CARTESIAN_POINT ( 'NONE',  ( 0.000000000000000000, 0.000000000000000000, 1.500000000000000000 ) ) ;
#207 = DIRECTION ( 'NONE',  ( 0.000000000000000000, 0.000000000000000000, 1.000000000000000000 ) ) ;
#208 = EDGE_CURVE ( 'NONE', #221, #106, #251, .T. ) ;
#209 = COORDINATED_UNIVERSAL_TIME_OFFSET ( 1, 0, .AHEAD. ) ;
#210 = AXIS2_PLACEMENT_3D ( 'NONE', #72, #285, #262 ) ;
#211 = DIRECTION ( 'NONE',  ( 0.000000000000000000, 0.000000000000000000, 1.000000000000000000 ) ) ;
#212 = APPROVAL_STATUS ( 'not_yet_approved' ) ;
#213 = FACE_BOUND ( 'NONE', #153, .T. ) ;
#214 = LINE ( 'NONE', #139, #11 ) ;
#215 = CARTESIAN_POINT ( 'NONE',  ( -1.100000000000000089, 1.347111479062088503E-16, 1.500000000000003553 ) ) ;
#216 = CARTESIAN_POINT ( 'NONE',  ( 0.000000000000000000, 0.000000000000000000, 1.500000000000000000 ) ) ;
#217 = DIRECTION ( 'NONE',  ( 1.000000000000000000, 0.000000000000000000, 0.000000000000000000 ) ) ;
#218 = ORIENTED_EDGE ( 'NONE', *, *, #183, .F. ) ;
#219 = AXIS2_PLACEMENT_3D ( 'NONE', #1, #304, #48 ) ;
#220 = DATE_TIME_ROLE ( 'creation_date' ) ;
#221 = VERTEX_POINT ( 'NONE', #95 ) ;
#222 = EDGE_LOOP ( 'NONE', ( #32, #297, #20, #103 ) ) ;
#223 = VERTEX_POINT ( 'NONE', #193 ) ;
#224 = APPROVAL ( #110, 'NEURÈENÝ' ) ;
#225 = CARTESIAN_POINT ( 'NONE',  ( 2.000000000000000000, 2.449293598294706414E-16, 0.000000000000000000 ) ) ;
#226 = DIRECTION ( 'NONE',  ( 1.000000000000000000, 0.000000000000000000, 0.000000000000000000 ) ) ;
#227 = VERTEX_POINT ( 'NONE', #305 ) ;
#228 = EDGE_CURVE ( 'NONE', #181, #150, #112, .T. ) ;
#229 = PERSON_AND_ORGANIZATION ( #128, #36 ) ;
#230 = CYLINDRICAL_SURFACE ( 'NONE', #60, 2.000000000000000000 ) ;
#231 = SECURITY_CLASSIFICATION ( '', '', #280 ) ;
#232 = CARTESIAN_POINT ( 'NONE',  ( 0.000000000000000000, 0.000000000000000000, 1.500000000000000000 ) ) ;
#233 = COORDINATED_UNIVERSAL_TIME_OFFSET ( 1, 0, .AHEAD. ) ;
#234 = LINE ( 'NONE', #144, #76 ) ;
#235 = ADVANCED_FACE ( 'NONE', ( #289 ), #277, .F. ) ;
#236 = DIRECTION ( 'NONE',  ( 1.224646799147353207E-16, 1.000000000000000000, -0.000000000000000000 ) ) ;
#237 = AXIS2_PLACEMENT_3D ( 'NONE', #184, #167, #217 ) ;
#238 = APPROVAL_PERSON_ORGANIZATION ( #229, #37, #89 ) ;
#239 = CARTESIAN_POINT ( 'NONE',  ( 0.000000000000000000, 0.000000000000000000, 0.000000000000000000 ) ) ;
#240 = DATE_TIME_ROLE ( 'classification_date' ) ;
#241 =( NAMED_UNIT ( * ) PLANE_ANGLE_UNIT ( ) SI_UNIT ( $, .RADIAN. ) );
#242 = PERSON_AND_ORGANIZATION ( #128, #36 ) ;
#243 = EDGE_LOOP ( 'NONE', ( #249, #99, #58, #9 ) ) ;
#244 = CIRCLE ( 'NONE', #53, 0.2000000000000000944 ) ;
#245 = VERTEX_POINT ( 'NONE', #215 ) ;
#246 = EDGE_LOOP ( 'NONE', ( #126, #80 ) ) ;
#247 = LOCAL_TIME ( 12, 37, 10.00000000000000000, #163 ) ;
#248 = EDGE_LOOP ( 'NONE', ( #78, #250 ) ) ;
#249 = ORIENTED_EDGE ( 'NONE', *, *, #45, .F. ) ;
#250 = ORIENTED_EDGE ( 'NONE', *, *, #67, .T. ) ;
#251 = CIRCLE ( 'NONE', #117, 2.000000000000000000 ) ;
#252 = ADVANCED_FACE ( 'NONE', ( #213, #24 ), #192, .T. ) ;
#253 = ORIENTED_EDGE ( 'NONE', *, *, #208, .T. ) ;
#254 = COORDINATED_UNIVERSAL_TIME_OFFSET ( 1, 0, .AHEAD. ) ;
#255 = DIRECTION ( 'NONE',  ( 0.000000000000000000, -1.000000000000000000, 0.000000000000000000 ) ) ;
#256 = CALENDAR_DATE ( 2022, 7, 7 ) ;
#257 = CIRCLE ( 'NONE', #237, 2.000000000000000000 ) ;
#258 = EDGE_LOOP ( 'NONE', ( #156, #268, #59, #14 ) ) ;
#259 = DIRECTION ( 'NONE',  ( 1.000000000000000000, 0.000000000000000000, -0.000000000000000000 ) ) ;
#260 = CC_DESIGN_PERSON_AND_ORGANIZATION_ASSIGNMENT ( #140, #283, ( #31 ) ) ;
#261 = APPLICATION_CONTEXT ( 'configuration controlled 3d designs of mechanical parts and assemblies' ) ;
#262 = DIRECTION ( 'NONE',  ( 1.000000000000000000, 0.000000000000000000, 0.000000000000000000 ) ) ;
#263 = CYLINDRICAL_SURFACE ( 'NONE', #34, 0.9000000000000000222 ) ;
#264 = CARTESIAN_POINT ( 'NONE',  ( -0.9000000000000000222, 0.000000000000000000, 126.5000000000000000 ) ) ;
#265 = EDGE_CURVE ( 'NONE', #83, #245, #123, .T. ) ;
#266 = EDGE_CURVE ( 'NONE', #150, #201, #214, .T. ) ;
#267 = PERSON_AND_ORGANIZATION_ROLE ( 'creator' ) ;
#268 = ORIENTED_EDGE ( 'NONE', *, *, #266, .T. ) ;
#269 = ORIENTED_EDGE ( 'NONE', *, *, #145, .T. ) ;
#270 = ORIENTED_EDGE ( 'NONE', *, *, #265, .F. ) ;
#271 = CIRCLE ( 'NONE', #86, 0.2000000000000000944 ) ;
#272 = ORIENTED_EDGE ( 'NONE', *, *, #228, .F. ) ;
#273 = AXIS2_PLACEMENT_3D ( 'NONE', #49, #169, #196 ) ;
#274 = CARTESIAN_POINT ( 'NONE',  ( 1.100000000000000089, 0.000000000000000000, 1.700000000000007061 ) ) ;
#275 = CC_DESIGN_PERSON_AND_ORGANIZATION_ASSIGNMENT ( #166, #267, ( #13 ) ) ;
#276 = CARTESIAN_POINT ( 'NONE',  ( -0.9000000000000000222, 0.000000000000000000, 126.5000000000000000 ) ) ;
#277 = TOROIDAL_SURFACE ( 'NONE', #146, 1.100000000000000089, 0.2000000000000000111 ) ;
#278 = EDGE_CURVE ( 'NONE', #221, #227, #234, .T. ) ;
#279 = DIRECTION ( 'NONE',  ( 1.000000000000000000, 0.000000000000000000, 0.000000000000000000 ) ) ;
#280 = SECURITY_CLASSIFICATION_LEVEL ( 'unclassified' ) ;
#281 = DIRECTION ( 'NONE',  ( 0.000000000000000000, 0.000000000000000000, 1.000000000000000000 ) ) ;
#282 = ADVANCED_BREP_SHAPE_REPRESENTATION ( '8f75', ( #132, #299 ), #129 ) ;
#283 = PERSON_AND_ORGANIZATION_ROLE ( 'creator' ) ;
#284 = DIRECTION ( 'NONE',  ( -1.000000000000000000, 0.000000000000000000, 0.000000000000000000 ) ) ;
#285 = DIRECTION ( 'NONE',  ( -0.000000000000000000, -0.000000000000000000, -1.000000000000000000 ) ) ;
#286 = ADVANCED_FACE ( 'NONE', ( #115 ), #263, .T. ) ;
#287 = FACE_OUTER_BOUND ( 'NONE', #258, .T. ) ;
#288 = VECTOR ( 'NONE', #301, 1000.000000000000000 ) ;
#289 = FACE_OUTER_BOUND ( 'NONE', #222, .T. ) ;
#290 = PERSON_AND_ORGANIZATION_ROLE ( 'classification_officer' ) ;
#291 = APPROVAL_DATE_TIME ( #7, #37 ) ;
#292 = ORIENTED_EDGE ( 'NONE', *, *, #165, .T. ) ;
#293 = AXIS2_PLACEMENT_3D ( 'NONE', #216, #44, #259 ) ;
#294 = CARTESIAN_POINT ( 'NONE',  ( 0.000000000000000000, 0.000000000000000000, 1.700000000000007061 ) ) ;
#295 = LOCAL_TIME ( 12, 37, 10.00000000000000000, #209 ) ;
#296 = ORIENTED_EDGE ( 'NONE', *, *, #208, .F. ) ;
#297 = ORIENTED_EDGE ( 'NONE', *, *, #12, .F. ) ;
#298 = DIRECTION ( 'NONE',  ( 1.000000000000000000, 0.000000000000000000, 0.000000000000000000 ) ) ;
#299 = AXIS2_PLACEMENT_3D ( 'NONE', #30, #27, #302 ) ;
#300 = APPLICATION_PROTOCOL_DEFINITION ( 'international standard', 'config_control_design', 1994, #5 ) ;
#301 = DIRECTION ( 'NONE',  ( -0.000000000000000000, -0.000000000000000000, -1.000000000000000000 ) ) ;
#302 = DIRECTION ( 'NONE',  ( 1.000000000000000000, 0.000000000000000000, 0.000000000000000000 ) ) ;
#303 = EDGE_CURVE ( 'NONE', #245, #83, #97, .T. ) ;
#304 = DIRECTION ( 'NONE',  ( -0.000000000000000000, -0.000000000000000000, -1.000000000000000000 ) ) ;
#305 = CARTESIAN_POINT ( 'NONE',  ( -2.000000000000000000, 0.000000000000000000, 0.000000000000000000 ) ) ;
#306 = CARTESIAN_POINT ( 'NONE',  ( 0.000000000000000000, 0.000000000000000000, 126.5000000000000000 ) ) ;
#307 = EDGE_CURVE ( 'NONE', #223, #245, #244, .T. ) ;
ENDSEC;
END-ISO-10303-21;
