ISO-10303-21;
HEADER;
FILE_DESCRIPTION (( 'STEP AP203' ),
    '1' );
FILE_NAME ('6a89.STEP',
    '2022-07-07T10:01:48',
    ( '' ),
    ( '' ),
    'SwSTEP 2.0',
    'SolidWorks 2019',
    '' );
FILE_SCHEMA (( 'CONFIG_CONTROL_DESIGN' ));
ENDSEC;

DATA;
#1 = CYLINDRICAL_SURFACE ( 'NONE', #266, 7.000000000000000000 ) ;
#2 = DIRECTION ( 'NONE',  ( 0.000000000000000000, -1.000000000000000000, 0.000000000000000000 ) ) ;
#3 = VERTEX_POINT ( 'NONE', #217 ) ;
#4 = CARTESIAN_POINT ( 'NONE',  ( -4.099999999999999645, 0.000000000000000000, 105.0000000000000142 ) ) ;
#5 = APPROVAL_PERSON_ORGANIZATION ( #180, #299, #273 ) ;
#6 = CARTESIAN_POINT ( 'NONE',  ( 0.000000000000000000, 0.000000000000000000, 5.199999999999996625 ) ) ;
#7 =( NAMED_UNIT ( * ) PLANE_ANGLE_UNIT ( ) SI_UNIT ( $, .RADIAN. ) );
#8 = APPROVAL_ROLE ( '' ) ;
#9 = CALENDAR_DATE ( 2022, 7, 7 ) ;
#10 = CIRCLE ( 'NONE', #188, 4.099999999999999645 ) ;
#11 = EDGE_LOOP ( 'NONE', ( #86, #20, #186, #243 ) ) ;
#12 = APPLICATION_PROTOCOL_DEFINITION ( 'international standard', 'config_control_design', 1994, #173 ) ;
#13 = DESIGN_CONTEXT ( 'detailed design', #301, 'design' ) ;
#14 = CC_DESIGN_SECURITY_CLASSIFICATION ( #204, ( #36 ) ) ;
#15 = ORIENTED_EDGE ( 'NONE', *, *, #279, .F. ) ;
#16 = CC_DESIGN_DATE_AND_TIME_ASSIGNMENT ( #277, #34, ( #171 ) ) ;
#17 = PLANE ( 'NONE',  #80 ) ;
#18 = AXIS2_PLACEMENT_3D ( 'NONE', #146, #213, #304 ) ;
#19 = DIRECTION ( 'NONE',  ( 0.000000000000000000, 0.000000000000000000, 1.000000000000000000 ) ) ;
#20 = ORIENTED_EDGE ( 'NONE', *, *, #134, .F. ) ;
#21 = ORIENTED_EDGE ( 'NONE', *, *, #137, .F. ) ;
#22 = APPROVAL ( #249, 'NEURÈENÝ' ) ;
#23 = CLOSED_SHELL ( 'NONE', ( #215, #191, #195, #120, #229, #198, #72, #63, #75 ) ) ;
#24 = CARTESIAN_POINT ( 'NONE',  ( 0.000000000000000000, 0.000000000000000000, 5.199999999999996625 ) ) ;
#25 = ORGANIZATION ( 'NEURÈENÝ', 'NEURÈENÝ', '' ) ;
#26 = DIRECTION ( 'NONE',  ( 0.000000000000000000, 0.000000000000000000, 1.000000000000000000 ) ) ;
#27 = CARTESIAN_POINT ( 'NONE',  ( 4.099999999999999645, 5.021051876504147385E-16, 5.199999999999996625 ) ) ;
#28 = DIRECTION ( 'NONE',  ( 1.000000000000000000, 0.000000000000000000, 0.000000000000000000 ) ) ;
#29 = FACE_BOUND ( 'NONE', #107, .T. ) ;
#30 = CIRCLE ( 'NONE', #152, 4.099999999999999645 ) ;
#31 = CC_DESIGN_DATE_AND_TIME_ASSIGNMENT ( #297, #85, ( #204 ) ) ;
#32 = DIRECTION ( 'NONE',  ( 1.000000000000000000, 0.000000000000000000, 0.000000000000000000 ) ) ;
#33 = CYLINDRICAL_SURFACE ( 'NONE', #218, 4.099999999999999645 ) ;
#34 = DATE_TIME_ROLE ( 'creation_date' ) ;
#35 = PERSON_AND_ORGANIZATION_ROLE ( 'classification_officer' ) ;
#36 = PRODUCT_DEFINITION_FORMATION_WITH_SPECIFIED_SOURCE ( 'LIBOVOLNÝ', '', #170, .NOT_KNOWN. ) ;
#37 = SECURITY_CLASSIFICATION_LEVEL ( 'unclassified' ) ;
#38 = EDGE_CURVE ( 'NONE', #264, #269, #265, .T. ) ;
#39 = DATE_AND_TIME ( #178, #211 ) ;
#40 = EDGE_LOOP ( 'NONE', ( #182, #307 ) ) ;
#41 = CARTESIAN_POINT ( 'NONE',  ( 0.000000000000000000, 0.000000000000000000, 5.000000000000000000 ) ) ;
#42 = CARTESIAN_POINT ( 'NONE',  ( 0.000000000000000000, 0.000000000000000000, 0.000000000000000000 ) ) ;
#43 = CARTESIAN_POINT ( 'NONE',  ( -4.099999999999999645, 0.000000000000000000, 5.199999999999996625 ) ) ;
#44 = TOROIDAL_SURFACE ( 'NONE', #175, 4.299999999999998934, 0.2000000000000000111 ) ;
#45 = CC_DESIGN_PERSON_AND_ORGANIZATION_ASSIGNMENT ( #203, #128, ( #171 ) ) ;
#46 = DIRECTION ( 'NONE',  ( 0.000000000000000000, 0.000000000000000000, 1.000000000000000000 ) ) ;
#47 = ORIENTED_EDGE ( 'NONE', *, *, #159, .F. ) ;
#48 = ORIENTED_EDGE ( 'NONE', *, *, #130, .F. ) ;
#49 = VECTOR ( 'NONE', #93, 1000.000000000000000 ) ;
#50 = ORIENTED_EDGE ( 'NONE', *, *, #38, .T. ) ;
#51 = LOCAL_TIME ( 12, 1, 48.00000000000000000, #275 ) ;
#52 = CARTESIAN_POINT ( 'NONE',  ( 0.000000000000000000, 0.000000000000000000, 105.0000000000000142 ) ) ;
#53 = DIRECTION ( 'NONE',  ( 0.000000000000000000, 0.000000000000000000, 1.000000000000000000 ) ) ;
#54 = CARTESIAN_POINT ( 'NONE',  ( 0.000000000000000000, 0.000000000000000000, 5.199999999999996625 ) ) ;
#55 = DIRECTION ( 'NONE',  ( 0.000000000000000000, 0.000000000000000000, 1.000000000000000000 ) ) ;
#56 = CIRCLE ( 'NONE', #18, 7.000000000000000000 ) ;
#57 = CALENDAR_DATE ( 2022, 7, 7 ) ;
#58 = PERSON_AND_ORGANIZATION ( #201, #25 ) ;
#59 = EDGE_CURVE ( 'NONE', #300, #264, #260, .T. ) ;
#60 = COORDINATED_UNIVERSAL_TIME_OFFSET ( 1, 0, .AHEAD. ) ;
#61 = CC_DESIGN_PERSON_AND_ORGANIZATION_ASSIGNMENT ( #126, #35, ( #204 ) ) ;
#62 = VECTOR ( 'NONE', #168, 1000.000000000000000 ) ;
#63 = ADVANCED_FACE ( 'NONE', ( #145 ), #196, .T. ) ;
#64 = FACE_OUTER_BOUND ( 'NONE', #40, .T. ) ;
#65 = CC_DESIGN_PERSON_AND_ORGANIZATION_ASSIGNMENT ( #58, #251, ( #36 ) ) ;
#66 = CARTESIAN_POINT ( 'NONE',  ( 0.000000000000000000, 0.000000000000000000, 5.000000000000000000 ) ) ;
#67 = EDGE_LOOP ( 'NONE', ( #131, #230 ) ) ;
#68 = AXIS2_PLACEMENT_3D ( 'NONE', #66, #98, #76 ) ;
#69 = CARTESIAN_POINT ( 'NONE',  ( 0.000000000000000000, 0.000000000000000000, 105.0000000000000142 ) ) ;
#70 = EDGE_LOOP ( 'NONE', ( #47, #133, #267, #21 ) ) ;
#71 = DIRECTION ( 'NONE',  ( -0.000000000000000000, -0.000000000000000000, -1.000000000000000000 ) ) ;
#72 = ADVANCED_FACE ( 'NONE', ( #214 ), #305, .T. ) ;
#73 = CARTESIAN_POINT ( 'NONE',  ( -7.000000000000000000, 0.000000000000000000, 0.000000000000000000 ) ) ;
#74 = DIRECTION ( 'NONE',  ( 0.000000000000000000, 0.000000000000000000, 1.000000000000000000 ) ) ;
#75 = ADVANCED_FACE ( 'NONE', ( #165 ), #209, .F. ) ;
#76 = DIRECTION ( 'NONE',  ( 1.000000000000000000, 0.000000000000000000, 0.000000000000000000 ) ) ;
#77 = CARTESIAN_POINT ( 'NONE',  ( 4.099999999999999645, 5.021051876504147385E-16, 105.0000000000000142 ) ) ;
#78 = PRODUCT_RELATED_PRODUCT_CATEGORY ( 'detail', '', ( #170 ) ) ;
#79 = DIRECTION ( 'NONE',  ( 1.000000000000000000, 0.000000000000000000, 0.000000000000000000 ) ) ;
#80 = AXIS2_PLACEMENT_3D ( 'NONE', #162, #53, #292 ) ;
#81 = MECHANICAL_CONTEXT ( 'NONE', #173, 'mechanical' ) ;
#82 = EDGE_CURVE ( 'NONE', #300, #262, #241, .T. ) ;
#83 = APPROVAL_ROLE ( '' ) ;
#84 = CC_DESIGN_PERSON_AND_ORGANIZATION_ASSIGNMENT ( #226, #294, ( #170 ) ) ;
#85 = DATE_TIME_ROLE ( 'classification_date' ) ;
#86 = ORIENTED_EDGE ( 'NONE', *, *, #158, .F. ) ;
#87 = AXIS2_PLACEMENT_3D ( 'NONE', #169, #286, #192 ) ;
#88 = EDGE_LOOP ( 'NONE', ( #113, #161 ) ) ;
#89 = DIRECTION ( 'NONE',  ( 1.000000000000000000, 0.000000000000000000, 0.000000000000000000 ) ) ;
#90 = DIRECTION ( 'NONE',  ( -0.000000000000000000, -0.000000000000000000, -1.000000000000000000 ) ) ;
#91 = VECTOR ( 'NONE', #187, 1000.000000000000000 ) ;
#92 = VERTEX_POINT ( 'NONE', #94 ) ;
#93 = DIRECTION ( 'NONE',  ( -0.000000000000000000, -0.000000000000000000, -1.000000000000000000 ) ) ;
#94 = CARTESIAN_POINT ( 'NONE',  ( 4.099999999999999645, 5.021051876504147385E-16, 105.0000000000000142 ) ) ;
#95 = CARTESIAN_POINT ( 'NONE',  ( 0.000000000000000000, 0.000000000000000000, 5.000000000000000000 ) ) ;
#96 = DIRECTION ( 'NONE',  ( 1.000000000000000000, 0.000000000000000000, 0.000000000000000000 ) ) ;
#97 = DIRECTION ( 'NONE',  ( -1.000000000000000000, 0.000000000000000000, 0.000000000000000000 ) ) ;
#98 = DIRECTION ( 'NONE',  ( -0.000000000000000000, -0.000000000000000000, -1.000000000000000000 ) ) ;
#99 = APPROVAL ( #102, 'NEURÈENÝ' ) ;
#100 = DIRECTION ( 'NONE',  ( 1.000000000000000000, 0.000000000000000000, 0.000000000000000000 ) ) ;
#101 = CIRCLE ( 'NONE', #298, 7.000000000000000000 ) ;
#102 = APPROVAL_STATUS ( 'not_yet_approved' ) ;
#103 = CARTESIAN_POINT ( 'NONE',  ( 0.000000000000000000, 0.000000000000000000, 0.000000000000000000 ) ) ;
#104 = CALENDAR_DATE ( 2022, 7, 7 ) ;
#105 = DATE_AND_TIME ( #157, #252 ) ;
#106 = ORIENTED_EDGE ( 'NONE', *, *, #125, .F. ) ;
#107 = EDGE_LOOP ( 'NONE', ( #144, #240 ) ) ;
#108 = AXIS2_PLACEMENT_3D ( 'NONE', #69, #289, #190 ) ;
#109 = ORIENTED_EDGE ( 'NONE', *, *, #250, .F. ) ;
#110 = CC_DESIGN_APPROVAL ( #299, ( #204 ) ) ;
#111 = CARTESIAN_POINT ( 'NONE',  ( -4.299999999999998934, 5.265981236333617484E-16, 4.999999999999998224 ) ) ;
#112 = ORIENTED_EDGE ( 'NONE', *, *, #82, .F. ) ;
#113 = ORIENTED_EDGE ( 'NONE', *, *, #125, .T. ) ;
#114 = CARTESIAN_POINT ( 'NONE',  ( -7.000000000000000000, 0.000000000000000000, 5.000000000000000000 ) ) ;
#115 = CIRCLE ( 'NONE', #295, 7.000000000000000000 ) ;
#116 = DIRECTION ( 'NONE',  ( 1.000000000000000000, 0.000000000000000000, 0.000000000000000000 ) ) ;
#117 = CARTESIAN_POINT ( 'NONE',  ( 4.299999999999998934, 0.000000000000000000, 5.199999999999996625 ) ) ;
#118 = EDGE_LOOP ( 'NONE', ( #48, #210, #15, #287 ) ) ;
#119 = CARTESIAN_POINT ( 'NONE',  ( 7.000000000000000000, 8.572527594031473190E-16, 5.000000000000000000 ) ) ;
#120 = ADVANCED_FACE ( 'NONE', ( #220 ), #1, .T. ) ;
#121 = LINE ( 'NONE', #148, #91 ) ;
#122 = DIRECTION ( 'NONE',  ( -1.000000000000000000, 0.000000000000000000, 0.000000000000000000 ) ) ;
#123 = APPLICATION_PROTOCOL_DEFINITION ( 'international standard', 'config_control_design', 1994, #301 ) ;
#124 = COORDINATED_UNIVERSAL_TIME_OFFSET ( 1, 0, .AHEAD. ) ;
#125 = EDGE_CURVE ( 'NONE', #281, #92, #30, .T. ) ;
#126 = PERSON_AND_ORGANIZATION ( #201, #25 ) ;
#127 = VERTEX_POINT ( 'NONE', #43 ) ;
#128 = PERSON_AND_ORGANIZATION_ROLE ( 'creator' ) ;
#129 = UNCERTAINTY_MEASURE_WITH_UNIT (LENGTH_MEASURE( 1.000000000000000082E-05 ), #135, 'distance_accuracy_value', 'NONE');
#130 = EDGE_CURVE ( 'NONE', #127, #302, #283, .T. ) ;
#131 = ORIENTED_EDGE ( 'NONE', *, *, #59, .T. ) ;
#132 = AXIS2_PLACEMENT_3D ( 'NONE', #197, #55, #223 ) ;
#133 = ORIENTED_EDGE ( 'NONE', *, *, #250, .T. ) ;
#134 = EDGE_CURVE ( 'NONE', #302, #127, #10, .T. ) ;
#135 =( LENGTH_UNIT ( ) NAMED_UNIT ( * ) SI_UNIT ( .MILLI., .METRE. ) );
#136 = MANIFOLD_SOLID_BREP ( 'Zaoblit1', #23 ) ;
#137 = EDGE_CURVE ( 'NONE', #281, #127, #121, .T. ) ;
#138 = DIRECTION ( 'NONE',  ( 1.000000000000000000, 0.000000000000000000, -0.000000000000000000 ) ) ;
#139 = ORIENTED_EDGE ( 'NONE', *, *, #233, .F. ) ;
#140 =( GEOMETRIC_REPRESENTATION_CONTEXT ( 3 ) GLOBAL_UNCERTAINTY_ASSIGNED_CONTEXT ( ( #129 ) ) GLOBAL_UNIT_ASSIGNED_CONTEXT ( ( #135, #7, #255 ) ) REPRESENTATION_CONTEXT ( 'NONE', 'WORKASPACE' ) );
#141 = DIRECTION ( 'NONE',  ( -1.000000000000000000, 1.224646799147353454E-16, 0.000000000000000000 ) ) ;
#142 = ORIENTED_EDGE ( 'NONE', *, *, #130, .T. ) ;
#143 = ORIENTED_EDGE ( 'NONE', *, *, #38, .F. ) ;
#144 = ORIENTED_EDGE ( 'NONE', *, *, #279, .T. ) ;
#145 = FACE_OUTER_BOUND ( 'NONE', #88, .T. ) ;
#146 = CARTESIAN_POINT ( 'NONE',  ( 0.000000000000000000, 0.000000000000000000, 0.000000000000000000 ) ) ;
#147 = EDGE_CURVE ( 'NONE', #269, #262, #101, .T. ) ;
#148 = CARTESIAN_POINT ( 'NONE',  ( -4.099999999999999645, 0.000000000000000000, 105.0000000000000142 ) ) ;
#149 = AXIS2_PLACEMENT_3D ( 'NONE', #291, #74, #271 ) ;
#150 = CARTESIAN_POINT ( 'NONE',  ( -4.299999999999998934, 5.265981236333617484E-16, 5.199999999999996625 ) ) ;
#151 = PERSON_AND_ORGANIZATION ( #201, #25 ) ;
#152 = AXIS2_PLACEMENT_3D ( 'NONE', #52, #244, #28 ) ;
#153 = PERSON_AND_ORGANIZATION_ROLE ( 'creator' ) ;
#154 = COORDINATED_UNIVERSAL_TIME_OFFSET ( 1, 0, .AHEAD. ) ;
#155 = CIRCLE ( 'NONE', #132, 4.099999999999999645 ) ;
#156 = CIRCLE ( 'NONE', #68, 4.299999999999998934 ) ;
#157 = CALENDAR_DATE ( 2022, 7, 7 ) ;
#158 = EDGE_CURVE ( 'NONE', #127, #259, #290, .T. ) ;
#159 = EDGE_CURVE ( 'NONE', #92, #281, #155, .T. ) ;
#160 = DIRECTION ( 'NONE',  ( -0.000000000000000000, -0.000000000000000000, -1.000000000000000000 ) ) ;
#161 = ORIENTED_EDGE ( 'NONE', *, *, #159, .T. ) ;
#162 = CARTESIAN_POINT ( 'NONE',  ( 0.000000000000000000, 0.000000000000000000, 5.000000000000000000 ) ) ;
#163 = AXIS2_PLACEMENT_3D ( 'NONE', #150, #258, #141 ) ;
#164 = EDGE_LOOP ( 'NONE', ( #143, #232, #285, #208 ) ) ;
#165 = FACE_OUTER_BOUND ( 'NONE', #11, .T. ) ;
#166 = DIRECTION ( 'NONE',  ( -0.000000000000000000, -0.000000000000000000, -1.000000000000000000 ) ) ;
#167 = DIRECTION ( 'NONE',  ( -1.000000000000000000, 0.000000000000000000, 0.000000000000000000 ) ) ;
#168 = DIRECTION ( 'NONE',  ( -0.000000000000000000, -0.000000000000000000, -1.000000000000000000 ) ) ;
#169 = CARTESIAN_POINT ( 'NONE',  ( 0.000000000000000000, 0.000000000000000000, 5.000000000000000000 ) ) ;
#170 = PRODUCT ( '6a89', '6a89', '', ( #81 ) ) ;
#171 = PRODUCT_DEFINITION ( 'NEZNÁMÝ', '', #36, #13 ) ;
#172 = FACE_OUTER_BOUND ( 'NONE', #118, .T. ) ;
#173 = APPLICATION_CONTEXT ( 'configuration controlled 3d designs of mechanical parts and assemblies' ) ;
#174 = DATE_AND_TIME ( #9, #248 ) ;
#175 = AXIS2_PLACEMENT_3D ( 'NONE', #6, #236, #200 ) ;
#176 = PERSON_AND_ORGANIZATION ( #201, #25 ) ;
#177 = CIRCLE ( 'NONE', #235, 4.299999999999998934 ) ;
#178 = CALENDAR_DATE ( 2022, 7, 7 ) ;
#179 = COORDINATED_UNIVERSAL_TIME_OFFSET ( 1, 0, .AHEAD. ) ;
#180 = PERSON_AND_ORGANIZATION ( #201, #25 ) ;
#181 = AXIS2_PLACEMENT_3D ( 'NONE', #42, #270, #138 ) ;
#182 = ORIENTED_EDGE ( 'NONE', *, *, #268, .F. ) ;
#183 = ORIENTED_EDGE ( 'NONE', *, *, #137, .T. ) ;
#184 = APPROVAL_PERSON_ORGANIZATION ( #176, #99, #83 ) ;
#185 = AXIS2_PLACEMENT_3D ( 'NONE', #103, #228, #79 ) ;
#186 = ORIENTED_EDGE ( 'NONE', *, *, #256, .T. ) ;
#187 = DIRECTION ( 'NONE',  ( -0.000000000000000000, -0.000000000000000000, -1.000000000000000000 ) ) ;
#188 = AXIS2_PLACEMENT_3D ( 'NONE', #54, #246, #32 ) ;
#189 = CARTESIAN_POINT ( 'NONE',  ( 0.000000000000000000, 0.000000000000000000, 5.000000000000000000 ) ) ;
#190 = DIRECTION ( 'NONE',  ( 1.000000000000000000, 0.000000000000000000, -0.000000000000000000 ) ) ;
#191 = ADVANCED_FACE ( 'NONE', ( #199 ), #33, .T. ) ;
#192 = DIRECTION ( 'NONE',  ( 1.000000000000000000, 0.000000000000000000, 0.000000000000000000 ) ) ;
#193 = APPROVAL_PERSON_ORGANIZATION ( #151, #22, #8 ) ;
#194 = EDGE_LOOP ( 'NONE', ( #139, #50, #222, #112 ) ) ;
#195 = ADVANCED_FACE ( 'NONE', ( #234 ), #247, .T. ) ;
#196 = PLANE ( 'NONE',  #108 ) ;
#197 = CARTESIAN_POINT ( 'NONE',  ( 0.000000000000000000, 0.000000000000000000, 105.0000000000000142 ) ) ;
#198 = ADVANCED_FACE ( 'NONE', ( #64 ), #221, .F. ) ;
#199 = FACE_OUTER_BOUND ( 'NONE', #70, .T. ) ;
#200 = DIRECTION ( 'NONE',  ( 1.000000000000000000, 0.000000000000000000, 0.000000000000000000 ) ) ;
#201 = PERSON ( 'NEURÈENÝ', 'NEURÈENÝ', 'NEURÈENÝ', ('NEURÈENÝ'), ('NEURÈENÝ'), ('NEURÈENÝ') ) ;
#202 = AXIS2_PLACEMENT_3D ( 'NONE', #225, #160, #282 ) ;
#203 = PERSON_AND_ORGANIZATION ( #201, #25 ) ;
#204 = SECURITY_CLASSIFICATION ( '', '', #37 ) ;
#205 = AXIS2_PLACEMENT_3D ( 'NONE', #24, #26, #116 ) ;
#206 = APPROVAL_DATE_TIME ( #174, #99 ) ;
#207 = SHAPE_DEFINITION_REPRESENTATION ( #238, #216 ) ;
#208 = ORIENTED_EDGE ( 'NONE', *, *, #268, .T. ) ;
#209 = TOROIDAL_SURFACE ( 'NONE', #205, 4.299999999999998934, 0.2000000000000000111 ) ;
#210 = ORIENTED_EDGE ( 'NONE', *, *, #158, .T. ) ;
#211 = LOCAL_TIME ( 12, 1, 48.00000000000000000, #154 ) ;
#212 = CARTESIAN_POINT ( 'NONE',  ( 7.000000000000000000, 8.572527594031473190E-16, 0.000000000000000000 ) ) ;
#213 = DIRECTION ( 'NONE',  ( 0.000000000000000000, 0.000000000000000000, 1.000000000000000000 ) ) ;
#214 = FACE_OUTER_BOUND ( 'NONE', #257, .T. ) ;
#215 = ADVANCED_FACE ( 'NONE', ( #172 ), #44, .F. ) ;
#216 = ADVANCED_BREP_SHAPE_REPRESENTATION ( '6a89', ( #136, #185 ), #140 ) ;
#217 = CARTESIAN_POINT ( 'NONE',  ( 4.299999999999998934, 0.000000000000000000, 4.999999999999998224 ) ) ;
#218 = AXIS2_PLACEMENT_3D ( 'NONE', #293, #272, #122 ) ;
#219 = DIRECTION ( 'NONE',  ( -0.000000000000000000, -0.000000000000000000, -1.000000000000000000 ) ) ;
#220 = FACE_OUTER_BOUND ( 'NONE', #164, .T. ) ;
#221 = PLANE ( 'NONE',  #181 ) ;
#222 = ORIENTED_EDGE ( 'NONE', *, *, #147, .T. ) ;
#223 = DIRECTION ( 'NONE',  ( 1.000000000000000000, 0.000000000000000000, 0.000000000000000000 ) ) ;
#224 = LOCAL_TIME ( 12, 1, 48.00000000000000000, #124 ) ;
#225 = CARTESIAN_POINT ( 'NONE',  ( 0.000000000000000000, 0.000000000000000000, 5.000000000000000000 ) ) ;
#226 = PERSON_AND_ORGANIZATION ( #201, #25 ) ;
#227 = CC_DESIGN_APPROVAL ( #22, ( #36 ) ) ;
#228 = DIRECTION ( 'NONE',  ( 0.000000000000000000, 0.000000000000000000, 1.000000000000000000 ) ) ;
#229 = ADVANCED_FACE ( 'NONE', ( #29, #261 ), #17, .T. ) ;
#230 = ORIENTED_EDGE ( 'NONE', *, *, #233, .T. ) ;
#231 = APPROVAL_DATE_TIME ( #105, #299 ) ;
#232 = ORIENTED_EDGE ( 'NONE', *, *, #59, .F. ) ;
#233 = EDGE_CURVE ( 'NONE', #264, #300, #115, .T. ) ;
#234 = FACE_OUTER_BOUND ( 'NONE', #194, .T. ) ;
#235 = AXIS2_PLACEMENT_3D ( 'NONE', #41, #90, #89 ) ;
#236 = DIRECTION ( 'NONE',  ( 0.000000000000000000, 0.000000000000000000, 1.000000000000000000 ) ) ;
#237 = CARTESIAN_POINT ( 'NONE',  ( 0.000000000000000000, 0.000000000000000000, 105.0000000000000142 ) ) ;
#238 = PRODUCT_DEFINITION_SHAPE ( 'NONE', 'NONE',  #171 ) ;
#239 = LINE ( 'NONE', #77, #62 ) ;
#240 = ORIENTED_EDGE ( 'NONE', *, *, #303, .T. ) ;
#241 = LINE ( 'NONE', #114, #288 ) ;
#242 = CIRCLE ( 'NONE', #280, 0.1999999999999996503 ) ;
#243 = ORIENTED_EDGE ( 'NONE', *, *, #303, .F. ) ;
#244 = DIRECTION ( 'NONE',  ( 0.000000000000000000, 0.000000000000000000, 1.000000000000000000 ) ) ;
#245 = DIRECTION ( 'NONE',  ( 0.000000000000000000, 0.000000000000000000, -1.000000000000000000 ) ) ;
#246 = DIRECTION ( 'NONE',  ( 0.000000000000000000, 0.000000000000000000, 1.000000000000000000 ) ) ;
#247 = CYLINDRICAL_SURFACE ( 'NONE', #202, 7.000000000000000000 ) ;
#248 = LOCAL_TIME ( 12, 1, 48.00000000000000000, #179 ) ;
#249 = APPROVAL_STATUS ( 'not_yet_approved' ) ;
#250 = EDGE_CURVE ( 'NONE', #92, #302, #239, .T. ) ;
#251 = PERSON_AND_ORGANIZATION_ROLE ( 'design_supplier' ) ;
#252 = LOCAL_TIME ( 12, 1, 48.00000000000000000, #60 ) ;
#253 = PERSON_AND_ORGANIZATION ( #201, #25 ) ;
#254 = CC_DESIGN_PERSON_AND_ORGANIZATION_ASSIGNMENT ( #253, #153, ( #36 ) ) ;
#255 =( NAMED_UNIT ( * ) SI_UNIT ( $, .STERADIAN. ) SOLID_ANGLE_UNIT ( ) );
#256 = EDGE_CURVE ( 'NONE', #302, #3, #242, .T. ) ;
#257 = EDGE_LOOP ( 'NONE', ( #109, #106, #183, #142 ) ) ;
#258 = DIRECTION ( 'NONE',  ( 1.224646799147353207E-16, 1.000000000000000000, -0.000000000000000000 ) ) ;
#259 = VERTEX_POINT ( 'NONE', #111 ) ;
#260 = CIRCLE ( 'NONE', #87, 7.000000000000000000 ) ;
#261 = FACE_OUTER_BOUND ( 'NONE', #67, .T. ) ;
#262 = VERTEX_POINT ( 'NONE', #73 ) ;
#263 = CARTESIAN_POINT ( 'NONE',  ( 0.000000000000000000, 0.000000000000000000, 0.000000000000000000 ) ) ;
#264 = VERTEX_POINT ( 'NONE', #119 ) ;
#265 = LINE ( 'NONE', #306, #49 ) ;
#266 = AXIS2_PLACEMENT_3D ( 'NONE', #95, #71, #167 ) ;
#267 = ORIENTED_EDGE ( 'NONE', *, *, #134, .T. ) ;
#268 = EDGE_CURVE ( 'NONE', #262, #269, #56, .T. ) ;
#269 = VERTEX_POINT ( 'NONE', #212 ) ;
#270 = DIRECTION ( 'NONE',  ( 0.000000000000000000, 0.000000000000000000, 1.000000000000000000 ) ) ;
#271 = DIRECTION ( 'NONE',  ( 1.000000000000000000, 0.000000000000000000, 0.000000000000000000 ) ) ;
#272 = DIRECTION ( 'NONE',  ( -0.000000000000000000, -0.000000000000000000, -1.000000000000000000 ) ) ;
#273 = APPROVAL_ROLE ( '' ) ;
#274 = CC_DESIGN_APPROVAL ( #99, ( #171 ) ) ;
#275 = COORDINATED_UNIVERSAL_TIME_OFFSET ( 1, 0, .AHEAD. ) ;
#276 = APPROVAL_DATE_TIME ( #39, #22 ) ;
#277 = DATE_AND_TIME ( #57, #51 ) ;
#278 = APPROVAL_STATUS ( 'not_yet_approved' ) ;
#279 = EDGE_CURVE ( 'NONE', #3, #259, #177, .T. ) ;
#280 = AXIS2_PLACEMENT_3D ( 'NONE', #117, #2, #245 ) ;
#281 = VERTEX_POINT ( 'NONE', #4 ) ;
#282 = DIRECTION ( 'NONE',  ( -1.000000000000000000, 0.000000000000000000, 0.000000000000000000 ) ) ;
#283 = CIRCLE ( 'NONE', #149, 4.099999999999999645 ) ;
#284 = CARTESIAN_POINT ( 'NONE',  ( -7.000000000000000000, 0.000000000000000000, 5.000000000000000000 ) ) ;
#285 = ORIENTED_EDGE ( 'NONE', *, *, #82, .T. ) ;
#286 = DIRECTION ( 'NONE',  ( 0.000000000000000000, 0.000000000000000000, 1.000000000000000000 ) ) ;
#287 = ORIENTED_EDGE ( 'NONE', *, *, #256, .F. ) ;
#288 = VECTOR ( 'NONE', #219, 1000.000000000000000 ) ;
#289 = DIRECTION ( 'NONE',  ( 0.000000000000000000, 0.000000000000000000, 1.000000000000000000 ) ) ;
#290 = CIRCLE ( 'NONE', #163, 0.1999999999999996503 ) ;
#291 = CARTESIAN_POINT ( 'NONE',  ( 0.000000000000000000, 0.000000000000000000, 5.199999999999996625 ) ) ;
#292 = DIRECTION ( 'NONE',  ( 1.000000000000000000, 0.000000000000000000, -0.000000000000000000 ) ) ;
#293 = CARTESIAN_POINT ( 'NONE',  ( 0.000000000000000000, 0.000000000000000000, 105.0000000000000142 ) ) ;
#294 = PERSON_AND_ORGANIZATION_ROLE ( 'design_owner' ) ;
#295 = AXIS2_PLACEMENT_3D ( 'NONE', #189, #19, #100 ) ;
#296 = AXIS2_PLACEMENT_3D ( 'NONE', #237, #166, #97 ) ;
#297 = DATE_AND_TIME ( #104, #224 ) ;
#298 = AXIS2_PLACEMENT_3D ( 'NONE', #263, #46, #96 ) ;
#299 = APPROVAL ( #278, 'NEURÈENÝ' ) ;
#300 = VERTEX_POINT ( 'NONE', #284 ) ;
#301 = APPLICATION_CONTEXT ( 'configuration controlled 3d designs of mechanical parts and assemblies' ) ;
#302 = VERTEX_POINT ( 'NONE', #27 ) ;
#303 = EDGE_CURVE ( 'NONE', #259, #3, #156, .T. ) ;
#304 = DIRECTION ( 'NONE',  ( 1.000000000000000000, 0.000000000000000000, 0.000000000000000000 ) ) ;
#305 = CYLINDRICAL_SURFACE ( 'NONE', #296, 4.099999999999999645 ) ;
#306 = CARTESIAN_POINT ( 'NONE',  ( 7.000000000000000000, 8.572527594031473190E-16, 5.000000000000000000 ) ) ;
#307 = ORIENTED_EDGE ( 'NONE', *, *, #147, .F. ) ;
ENDSEC;
END-ISO-10303-21;
