ISO-10303-21;
HEADER;
FILE_DESCRIPTION (( 'STEP AP203' ),
    '1' );
FILE_NAME ('b2e6.STEP',
    '2022-07-07T10:09:48',
    ( '' ),
    ( '' ),
    'SwSTEP 2.0',
    'SolidWorks 2019',
    '' );
FILE_SCHEMA (( 'CONFIG_CONTROL_DESIGN' ));
ENDSEC;

DATA;
#1 = AXIS2_PLACEMENT_3D ( 'NONE', #34, #230, #50 ) ;
#2 = EDGE_CURVE ( 'NONE', #214, #104, #61, .T. ) ;
#3 = PERSON ( 'NEURÈENÝ', 'NEURÈENÝ', 'NEURÈENÝ', ('NEURÈENÝ'), ('NEURÈENÝ'), ('NEURÈENÝ') ) ;
#4 = TOROIDAL_SURFACE ( 'NONE', #83, 3.450000000000000178, 0.2000000000000000111 ) ;
#5 = LINE ( 'NONE', #31, #272 ) ;
#6 = APPLICATION_PROTOCOL_DEFINITION ( 'international standard', 'config_control_design', 1994, #147 ) ;
#7 = DIRECTION ( 'NONE',  ( 1.000000000000000000, 0.000000000000000000, 0.000000000000000000 ) ) ;
#8 = AXIS2_PLACEMENT_3D ( 'NONE', #306, #39, #202 ) ;
#9 = ORIENTED_EDGE ( 'NONE', *, *, #209, .T. ) ;
#10 = CIRCLE ( 'NONE', #186, 6.000000000000000888 ) ;
#11 = DIRECTION ( 'NONE',  ( 0.000000000000000000, 0.000000000000000000, 1.000000000000000000 ) ) ;
#12 = PERSON_AND_ORGANIZATION ( #3, #223 ) ;
#13 = ORIENTED_EDGE ( 'NONE', *, *, #209, .F. ) ;
#14 = CARTESIAN_POINT ( 'NONE',  ( 0.000000000000000000, 0.000000000000000000, 130.0000000000000000 ) ) ;
#15 = PRODUCT_DEFINITION_FORMATION_WITH_SPECIFIED_SOURCE ( 'LIBOVOLNÝ', '', #257, .NOT_KNOWN. ) ;
#16 = FACE_OUTER_BOUND ( 'NONE', #196, .T. ) ;
#17 = DIRECTION ( 'NONE',  ( -0.000000000000000000, -0.000000000000000000, -1.000000000000000000 ) ) ;
#18 = CIRCLE ( 'NONE', #26, 3.450000000000000178 ) ;
#19 = DIRECTION ( 'NONE',  ( 0.000000000000000000, 0.000000000000000000, -1.000000000000000000 ) ) ;
#20 = CALENDAR_DATE ( 2022, 7, 7 ) ;
#21 = FACE_OUTER_BOUND ( 'NONE', #234, .T. ) ;
#22 = AXIS2_PLACEMENT_3D ( 'NONE', #250, #225, #19 ) ;
#23 = APPROVAL ( #281, 'NEURÈENÝ' ) ;
#24 = APPROVAL_STATUS ( 'not_yet_approved' ) ;
#25 = LOCAL_TIME ( 12, 9, 48.00000000000000000, #233 ) ;
#26 = AXIS2_PLACEMENT_3D ( 'NONE', #27, #32, #127 ) ;
#27 = CARTESIAN_POINT ( 'NONE',  ( 0.000000000000000000, 0.000000000000000000, 5.000000000000000000 ) ) ;
#28 = CALENDAR_DATE ( 2022, 7, 7 ) ;
#29 = ORIENTED_EDGE ( 'NONE', *, *, #185, .F. ) ;
#30 = DIRECTION ( 'NONE',  ( 1.000000000000000000, 0.000000000000000000, 0.000000000000000000 ) ) ;
#31 = CARTESIAN_POINT ( 'NONE',  ( -6.000000000000000888, 0.000000000000000000, 5.000000000000000000 ) ) ;
#32 = DIRECTION ( 'NONE',  ( -0.000000000000000000, -0.000000000000000000, -1.000000000000000000 ) ) ;
#33 = CC_DESIGN_PERSON_AND_ORGANIZATION_ASSIGNMENT ( #264, #53, ( #158 ) ) ;
#34 = CARTESIAN_POINT ( 'NONE',  ( 0.000000000000000000, 0.000000000000000000, 0.000000000000000000 ) ) ;
#35 = ORIENTED_EDGE ( 'NONE', *, *, #45, .F. ) ;
#36 = FACE_OUTER_BOUND ( 'NONE', #288, .T. ) ;
#37 = CC_DESIGN_APPROVAL ( #23, ( #157 ) ) ;
#38 = CARTESIAN_POINT ( 'NONE',  ( 6.000000000000000888, 7.347880794884120722E-16, 0.000000000000000000 ) ) ;
#39 = DIRECTION ( 'NONE',  ( 0.000000000000000000, 0.000000000000000000, 1.000000000000000000 ) ) ;
#40 = AXIS2_PLACEMENT_3D ( 'NONE', #197, #177, #146 ) ;
#41 = DATE_AND_TIME ( #20, #170 ) ;
#42 = CYLINDRICAL_SURFACE ( 'NONE', #242, 3.250000000000000444 ) ;
#43 = CARTESIAN_POINT ( 'NONE',  ( 3.250000000000000444, 3.980102097228898231E-16, 5.199999999999996625 ) ) ;
#44 = DATE_TIME_ROLE ( 'classification_date' ) ;
#45 = EDGE_CURVE ( 'NONE', #258, #295, #18, .T. ) ;
#46 = APPROVAL_PERSON_ORGANIZATION ( #290, #249, #76 ) ;
#47 = PERSON_AND_ORGANIZATION ( #3, #223 ) ;
#48 = DIRECTION ( 'NONE',  ( -0.000000000000000000, -0.000000000000000000, -1.000000000000000000 ) ) ;
#49 = ORIENTED_EDGE ( 'NONE', *, *, #275, .F. ) ;
#50 = DIRECTION ( 'NONE',  ( 1.000000000000000000, 0.000000000000000000, 0.000000000000000000 ) ) ;
#51 = ORIENTED_EDGE ( 'NONE', *, *, #59, .F. ) ;
#52 = PLANE ( 'NONE',  #167 ) ;
#53 = PERSON_AND_ORGANIZATION_ROLE ( 'creator' ) ;
#54 = ORIENTED_EDGE ( 'NONE', *, *, #216, .F. ) ;
#55 = ADVANCED_FACE ( 'NONE', ( #112 ), #52, .T. ) ;
#56 = CARTESIAN_POINT ( 'NONE',  ( 0.000000000000000000, 0.000000000000000000, 5.000000000000000000 ) ) ;
#57 = APPROVAL_DATE_TIME ( #266, #184 ) ;
#58 = LOCAL_TIME ( 12, 9, 48.00000000000000000, #254 ) ;
#59 = EDGE_CURVE ( 'NONE', #240, #262, #187, .T. ) ;
#60 = ORIENTED_EDGE ( 'NONE', *, *, #141, .T. ) ;
#61 = CIRCLE ( 'NONE', #163, 3.250000000000000444 ) ;
#62 = EDGE_LOOP ( 'NONE', ( #29, #260, #9, #81 ) ) ;
#63 = CYLINDRICAL_SURFACE ( 'NONE', #87, 3.250000000000000444 ) ;
#64 = PERSON_AND_ORGANIZATION_ROLE ( 'classification_officer' ) ;
#65 = CARTESIAN_POINT ( 'NONE',  ( 0.000000000000000000, 0.000000000000000000, 5.000000000000000000 ) ) ;
#66 = FACE_BOUND ( 'NONE', #231, .T. ) ;
#67 = CIRCLE ( 'NONE', #229, 3.450000000000000178 ) ;
#68 = MANIFOLD_SOLID_BREP ( 'Zaoblit1', #120 ) ;
#69 = CARTESIAN_POINT ( 'NONE',  ( -3.250000000000000444, 0.000000000000000000, 130.0000000000000000 ) ) ;
#70 = SHAPE_DEFINITION_REPRESENTATION ( #189, #122 ) ;
#71 = ADVANCED_FACE ( 'NONE', ( #36 ), #4, .F. ) ;
#72 = CIRCLE ( 'NONE', #283, 6.000000000000000888 ) ;
#73 =( NAMED_UNIT ( * ) SI_UNIT ( $, .STERADIAN. ) SOLID_ANGLE_UNIT ( ) );
#74 = EDGE_LOOP ( 'NONE', ( #49, #51 ) ) ;
#75 = ORIENTED_EDGE ( 'NONE', *, *, #2, .F. ) ;
#76 = APPROVAL_ROLE ( '' ) ;
#77 = CC_DESIGN_DATE_AND_TIME_ASSIGNMENT ( #41, #44, ( #157 ) ) ;
#78 = CARTESIAN_POINT ( 'NONE',  ( 0.000000000000000000, 0.000000000000000000, 130.0000000000000000 ) ) ;
#79 = DIRECTION ( 'NONE',  ( 1.000000000000000000, 0.000000000000000000, 0.000000000000000000 ) ) ;
#80 = ORIENTED_EDGE ( 'NONE', *, *, #155, .T. ) ;
#81 = ORIENTED_EDGE ( 'NONE', *, *, #108, .T. ) ;
#82 = EDGE_LOOP ( 'NONE', ( #268, #98, #105, #13 ) ) ;
#83 = AXIS2_PLACEMENT_3D ( 'NONE', #130, #11, #265 ) ;
#84 = CARTESIAN_POINT ( 'NONE',  ( 0.000000000000000000, 0.000000000000000000, 5.000000000000000000 ) ) ;
#85 = DIRECTION ( 'NONE',  ( -0.000000000000000000, -0.000000000000000000, -1.000000000000000000 ) ) ;
#86 = CC_DESIGN_SECURITY_CLASSIFICATION ( #157, ( #15 ) ) ;
#87 = AXIS2_PLACEMENT_3D ( 'NONE', #162, #113, #276 ) ;
#88 = CARTESIAN_POINT ( 'NONE',  ( 0.000000000000000000, 0.000000000000000000, 0.000000000000000000 ) ) ;
#89 = CC_DESIGN_PERSON_AND_ORGANIZATION_ASSIGNMENT ( #144, #261, ( #257 ) ) ;
#90 = ADVANCED_FACE ( 'NONE', ( #110 ), #191, .F. ) ;
#91 = PERSON_AND_ORGANIZATION_ROLE ( 'design_supplier' ) ;
#92 = LINE ( 'NONE', #138, #203 ) ;
#93 = SECURITY_CLASSIFICATION_LEVEL ( 'unclassified' ) ;
#94 = DIRECTION ( 'NONE',  ( -0.000000000000000000, -0.000000000000000000, -1.000000000000000000 ) ) ;
#95 =( GEOMETRIC_REPRESENTATION_CONTEXT ( 3 ) GLOBAL_UNCERTAINTY_ASSIGNED_CONTEXT ( ( #156 ) ) GLOBAL_UNIT_ASSIGNED_CONTEXT ( ( #243, #213, #73 ) ) REPRESENTATION_CONTEXT ( 'NONE', 'WORKASPACE' ) );
#96 = AXIS2_PLACEMENT_3D ( 'NONE', #291, #236, #7 ) ;
#97 = CARTESIAN_POINT ( 'NONE',  ( 0.000000000000000000, 0.000000000000000000, 130.0000000000000000 ) ) ;
#98 = ORIENTED_EDGE ( 'NONE', *, *, #185, .T. ) ;
#99 = MECHANICAL_CONTEXT ( 'NONE', #147, 'mechanical' ) ;
#100 = ORIENTED_EDGE ( 'NONE', *, *, #141, .F. ) ;
#101 = VERTEX_POINT ( 'NONE', #169 ) ;
#102 = CC_DESIGN_PERSON_AND_ORGANIZATION_ASSIGNMENT ( #285, #91, ( #15 ) ) ;
#103 = CIRCLE ( 'NONE', #259, 3.250000000000000444 ) ;
#104 = VERTEX_POINT ( 'NONE', #294 ) ;
#105 = ORIENTED_EDGE ( 'NONE', *, *, #2, .T. ) ;
#106 = EDGE_CURVE ( 'NONE', #104, #295, #252, .T. ) ;
#107 = APPROVAL_ROLE ( '' ) ;
#108 = EDGE_CURVE ( 'NONE', #104, #214, #210, .T. ) ;
#109 = ORIENTED_EDGE ( 'NONE', *, *, #275, .T. ) ;
#110 = FACE_OUTER_BOUND ( 'NONE', #74, .T. ) ;
#111 = ORIENTED_EDGE ( 'NONE', *, *, #160, .T. ) ;
#112 = FACE_OUTER_BOUND ( 'NONE', #286, .T. ) ;
#113 = DIRECTION ( 'NONE',  ( -0.000000000000000000, -0.000000000000000000, -1.000000000000000000 ) ) ;
#114 = DIRECTION ( 'NONE',  ( 1.000000000000000000, 0.000000000000000000, 0.000000000000000000 ) ) ;
#115 = APPROVAL_PERSON_ORGANIZATION ( #164, #23, #247 ) ;
#116 = CIRCLE ( 'NONE', #279, 3.250000000000000444 ) ;
#117 = FACE_OUTER_BOUND ( 'NONE', #82, .T. ) ;
#118 = DIRECTION ( 'NONE',  ( -1.000000000000000000, 0.000000000000000000, 0.000000000000000000 ) ) ;
#119 = CALENDAR_DATE ( 2022, 7, 7 ) ;
#120 = CLOSED_SHELL ( 'NONE', ( #71, #222, #274, #205, #195, #90, #198, #55, #239 ) ) ;
#121 = PERSON_AND_ORGANIZATION_ROLE ( 'creator' ) ;
#122 = ADVANCED_BREP_SHAPE_REPRESENTATION ( 'b2e6', ( #68, #1 ), #95 ) ;
#123 = ORIENTED_EDGE ( 'NONE', *, *, #160, .F. ) ;
#124 = DIRECTION ( 'NONE',  ( 0.000000000000000000, 0.000000000000000000, 1.000000000000000000 ) ) ;
#125 = DATE_AND_TIME ( #28, #25 ) ;
#126 = ORIENTED_EDGE ( 'NONE', *, *, #302, .T. ) ;
#127 = DIRECTION ( 'NONE',  ( 1.000000000000000000, 0.000000000000000000, 0.000000000000000000 ) ) ;
#128 = VECTOR ( 'NONE', #17, 1000.000000000000000 ) ;
#129 = ORIENTED_EDGE ( 'NONE', *, *, #106, .T. ) ;
#130 = CARTESIAN_POINT ( 'NONE',  ( 0.000000000000000000, 0.000000000000000000, 5.199999999999996625 ) ) ;
#131 = DIRECTION ( 'NONE',  ( 1.224646799147353207E-16, 1.000000000000000000, -0.000000000000000000 ) ) ;
#132 = APPROVAL_PERSON_ORGANIZATION ( #12, #184, #107 ) ;
#133 = DESIGN_CONTEXT ( 'detailed design', #238, 'design' ) ;
#134 = FACE_OUTER_BOUND ( 'NONE', #62, .T. ) ;
#135 = CC_DESIGN_PERSON_AND_ORGANIZATION_ASSIGNMENT ( #304, #64, ( #157 ) ) ;
#136 = DIRECTION ( 'NONE',  ( -1.000000000000000000, 0.000000000000000000, 0.000000000000000000 ) ) ;
#137 = CARTESIAN_POINT ( 'NONE',  ( -6.000000000000000888, 0.000000000000000000, 0.000000000000000000 ) ) ;
#138 = CARTESIAN_POINT ( 'NONE',  ( 6.000000000000000888, 7.347880794884120722E-16, 5.000000000000000000 ) ) ;
#139 = FACE_OUTER_BOUND ( 'NONE', #153, .T. ) ;
#140 = AXIS2_PLACEMENT_3D ( 'NONE', #65, #85, #136 ) ;
#141 = EDGE_CURVE ( 'NONE', #145, #190, #298, .T. ) ;
#142 = ORIENTED_EDGE ( 'NONE', *, *, #296, .T. ) ;
#143 = CARTESIAN_POINT ( 'NONE',  ( 0.000000000000000000, 0.000000000000000000, 5.199999999999996625 ) ) ;
#144 = PERSON_AND_ORGANIZATION ( #3, #223 ) ;
#145 = VERTEX_POINT ( 'NONE', #149 ) ;
#146 = DIRECTION ( 'NONE',  ( 1.000000000000000000, 0.000000000000000000, -0.000000000000000000 ) ) ;
#147 = APPLICATION_CONTEXT ( 'configuration controlled 3d designs of mechanical parts and assemblies' ) ;
#148 = COORDINATED_UNIVERSAL_TIME_OFFSET ( 1, 0, .AHEAD. ) ;
#149 = CARTESIAN_POINT ( 'NONE',  ( -6.000000000000000888, 0.000000000000000000, 5.000000000000000000 ) ) ;
#150 = LOCAL_TIME ( 12, 9, 48.00000000000000000, #148 ) ;
#151 = DIRECTION ( 'NONE',  ( 0.000000000000000000, 0.000000000000000000, 1.000000000000000000 ) ) ;
#152 = TOROIDAL_SURFACE ( 'NONE', #8, 3.450000000000000178, 0.2000000000000000111 ) ;
#153 = EDGE_LOOP ( 'NONE', ( #267, #75, #142, #123 ) ) ;
#154 = DIRECTION ( 'NONE',  ( 0.000000000000000000, 0.000000000000000000, 1.000000000000000000 ) ) ;
#155 = EDGE_CURVE ( 'NONE', #101, #168, #116, .T. ) ;
#156 = UNCERTAINTY_MEASURE_WITH_UNIT (LENGTH_MEASURE( 1.000000000000000082E-05 ), #243, 'distance_accuracy_value', 'NONE');
#157 = SECURITY_CLASSIFICATION ( '', '', #93 ) ;
#158 = PRODUCT_DEFINITION ( 'NEZNÁMÝ', '', #15, #133 ) ;
#159 = CARTESIAN_POINT ( 'NONE',  ( 0.000000000000000000, 0.000000000000000000, 5.000000000000000000 ) ) ;
#160 = EDGE_CURVE ( 'NONE', #295, #258, #67, .T. ) ;
#161 = DIRECTION ( 'NONE',  ( 0.000000000000000000, 0.000000000000000000, 1.000000000000000000 ) ) ;
#162 = CARTESIAN_POINT ( 'NONE',  ( 0.000000000000000000, 0.000000000000000000, 130.0000000000000000 ) ) ;
#163 = AXIS2_PLACEMENT_3D ( 'NONE', #143, #232, #178 ) ;
#164 = PERSON_AND_ORGANIZATION ( #3, #223 ) ;
#165 = CARTESIAN_POINT ( 'NONE',  ( 0.000000000000000000, 0.000000000000000000, 5.000000000000000000 ) ) ;
#166 = PRODUCT_RELATED_PRODUCT_CATEGORY ( 'detail', '', ( #257 ) ) ;
#167 = AXIS2_PLACEMENT_3D ( 'NONE', #78, #154, #263 ) ;
#168 = VERTEX_POINT ( 'NONE', #69 ) ;
#169 = CARTESIAN_POINT ( 'NONE',  ( 3.250000000000000444, 3.980102097228898231E-16, 130.0000000000000000 ) ) ;
#170 = LOCAL_TIME ( 12, 9, 48.00000000000000000, #282 ) ;
#171 = DIRECTION ( 'NONE',  ( 1.000000000000000000, 0.000000000000000000, 0.000000000000000000 ) ) ;
#172 = APPROVAL_DATE_TIME ( #125, #249 ) ;
#173 = ORIENTED_EDGE ( 'NONE', *, *, #299, .F. ) ;
#174 = CARTESIAN_POINT ( 'NONE',  ( -3.450000000000000178, 4.225031457058368824E-16, 5.199999999999996625 ) ) ;
#175 = DATE_AND_TIME ( #237, #150 ) ;
#176 = ORIENTED_EDGE ( 'NONE', *, *, #108, .F. ) ;
#177 = DIRECTION ( 'NONE',  ( 0.000000000000000000, 0.000000000000000000, 1.000000000000000000 ) ) ;
#178 = DIRECTION ( 'NONE',  ( 1.000000000000000000, 0.000000000000000000, 0.000000000000000000 ) ) ;
#179 = AXIS2_PLACEMENT_3D ( 'NONE', #165, #180, #273 ) ;
#180 = DIRECTION ( 'NONE',  ( 0.000000000000000000, 0.000000000000000000, 1.000000000000000000 ) ) ;
#181 = DIRECTION ( 'NONE',  ( 0.000000000000000000, 0.000000000000000000, 1.000000000000000000 ) ) ;
#182 = CARTESIAN_POINT ( 'NONE',  ( 3.450000000000000178, 0.000000000000000000, 4.999999999999998224 ) ) ;
#183 = PLANE ( 'NONE',  #179 ) ;
#184 = APPROVAL ( #24, 'NEURÈENÝ' ) ;
#185 = EDGE_CURVE ( 'NONE', #101, #214, #307, .T. ) ;
#186 = AXIS2_PLACEMENT_3D ( 'NONE', #88, #161, #114 ) ;
#187 = CIRCLE ( 'NONE', #201, 6.000000000000000888 ) ;
#188 = ORIENTED_EDGE ( 'NONE', *, *, #226, .T. ) ;
#189 = PRODUCT_DEFINITION_SHAPE ( 'NONE', 'NONE',  #158 ) ;
#190 = VERTEX_POINT ( 'NONE', #277 ) ;
#191 = PLANE ( 'NONE',  #40 ) ;
#192 = APPLICATION_PROTOCOL_DEFINITION ( 'international standard', 'config_control_design', 1994, #238 ) ;
#193 = DIRECTION ( 'NONE',  ( -1.000000000000000000, 1.224646799147350742E-16, 0.000000000000000000 ) ) ;
#194 = CALENDAR_DATE ( 2022, 7, 7 ) ;
#195 = ADVANCED_FACE ( 'NONE', ( #66, #16 ), #183, .T. ) ;
#196 = EDGE_LOOP ( 'NONE', ( #60, #188 ) ) ;
#197 = CARTESIAN_POINT ( 'NONE',  ( 0.000000000000000000, 0.000000000000000000, 0.000000000000000000 ) ) ;
#198 = ADVANCED_FACE ( 'NONE', ( #134 ), #63, .T. ) ;
#199 = EDGE_LOOP ( 'NONE', ( #287, #271, #212, #173 ) ) ;
#200 = DIRECTION ( 'NONE',  ( 1.000000000000000000, 0.000000000000000000, 0.000000000000000000 ) ) ;
#201 = AXIS2_PLACEMENT_3D ( 'NONE', #218, #124, #171 ) ;
#202 = DIRECTION ( 'NONE',  ( 1.000000000000000000, 0.000000000000000000, 0.000000000000000000 ) ) ;
#203 = VECTOR ( 'NONE', #305, 1000.000000000000000 ) ;
#204 = CARTESIAN_POINT ( 'NONE',  ( -3.450000000000000178, 4.225031457058368824E-16, 4.999999999999998224 ) ) ;
#205 = ADVANCED_FACE ( 'NONE', ( #21 ), #280, .T. ) ;
#206 = DIRECTION ( 'NONE',  ( 1.000000000000000000, 0.000000000000000000, 0.000000000000000000 ) ) ;
#207 = DIRECTION ( 'NONE',  ( -1.000000000000000000, 0.000000000000000000, 0.000000000000000000 ) ) ;
#208 = APPROVAL_DATE_TIME ( #278, #23 ) ;
#209 = EDGE_CURVE ( 'NONE', #168, #104, #253, .T. ) ;
#210 = CIRCLE ( 'NONE', #96, 3.250000000000000444 ) ;
#211 = COORDINATED_UNIVERSAL_TIME_OFFSET ( 1, 0, .AHEAD. ) ;
#212 = ORIENTED_EDGE ( 'NONE', *, *, #59, .T. ) ;
#213 =( NAMED_UNIT ( * ) PLANE_ANGLE_UNIT ( ) SI_UNIT ( $, .RADIAN. ) );
#214 = VERTEX_POINT ( 'NONE', #43 ) ;
#215 = CC_DESIGN_APPROVAL ( #184, ( #15 ) ) ;
#216 = EDGE_CURVE ( 'NONE', #190, #240, #92, .T. ) ;
#217 = APPROVAL_STATUS ( 'not_yet_approved' ) ;
#218 = CARTESIAN_POINT ( 'NONE',  ( 0.000000000000000000, 0.000000000000000000, 0.000000000000000000 ) ) ;
#219 = DIRECTION ( 'NONE',  ( 0.000000000000000000, 0.000000000000000000, 1.000000000000000000 ) ) ;
#220 = FACE_OUTER_BOUND ( 'NONE', #199, .T. ) ;
#221 = CARTESIAN_POINT ( 'NONE',  ( 0.000000000000000000, 0.000000000000000000, 5.000000000000000000 ) ) ;
#222 = ADVANCED_FACE ( 'NONE', ( #117 ), #42, .T. ) ;
#223 = ORGANIZATION ( 'NEURÈENÝ', 'NEURÈENÝ', '' ) ;
#224 = AXIS2_PLACEMENT_3D ( 'NONE', #56, #219, #200 ) ;
#225 = DIRECTION ( 'NONE',  ( 0.000000000000000000, -1.000000000000000000, 0.000000000000000000 ) ) ;
#226 = EDGE_CURVE ( 'NONE', #190, #145, #72, .T. ) ;
#227 = CARTESIAN_POINT ( 'NONE',  ( 0.000000000000000000, 0.000000000000000000, 130.0000000000000000 ) ) ;
#228 = CARTESIAN_POINT ( 'NONE',  ( -3.250000000000000444, 0.000000000000000000, 130.0000000000000000 ) ) ;
#229 = AXIS2_PLACEMENT_3D ( 'NONE', #84, #289, #30 ) ;
#230 = DIRECTION ( 'NONE',  ( 0.000000000000000000, 0.000000000000000000, 1.000000000000000000 ) ) ;
#231 = EDGE_LOOP ( 'NONE', ( #245, #111 ) ) ;
#232 = DIRECTION ( 'NONE',  ( 0.000000000000000000, 0.000000000000000000, 1.000000000000000000 ) ) ;
#233 = COORDINATED_UNIVERSAL_TIME_OFFSET ( 1, 0, .AHEAD. ) ;
#234 = EDGE_LOOP ( 'NONE', ( #54, #100, #244, #109 ) ) ;
#235 = CC_DESIGN_DATE_AND_TIME_ASSIGNMENT ( #175, #292, ( #158 ) ) ;
#236 = DIRECTION ( 'NONE',  ( 0.000000000000000000, 0.000000000000000000, 1.000000000000000000 ) ) ;
#237 = CALENDAR_DATE ( 2022, 7, 7 ) ;
#238 = APPLICATION_CONTEXT ( 'configuration controlled 3d designs of mechanical parts and assemblies' ) ;
#239 = ADVANCED_FACE ( 'NONE', ( #139 ), #152, .F. ) ;
#240 = VERTEX_POINT ( 'NONE', #38 ) ;
#241 = DIRECTION ( 'NONE',  ( 0.000000000000000000, 0.000000000000000000, 1.000000000000000000 ) ) ;
#242 = AXIS2_PLACEMENT_3D ( 'NONE', #227, #248, #207 ) ;
#243 =( LENGTH_UNIT ( ) NAMED_UNIT ( * ) SI_UNIT ( .MILLI., .METRE. ) );
#244 = ORIENTED_EDGE ( 'NONE', *, *, #299, .T. ) ;
#245 = ORIENTED_EDGE ( 'NONE', *, *, #45, .T. ) ;
#246 = CARTESIAN_POINT ( 'NONE',  ( 3.250000000000000444, 3.980102097228898231E-16, 130.0000000000000000 ) ) ;
#247 = APPROVAL_ROLE ( '' ) ;
#248 = DIRECTION ( 'NONE',  ( -0.000000000000000000, -0.000000000000000000, -1.000000000000000000 ) ) ;
#249 = APPROVAL ( #217, 'NEURÈENÝ' ) ;
#250 = CARTESIAN_POINT ( 'NONE',  ( 3.450000000000000178, 0.000000000000000000, 5.199999999999996625 ) ) ;
#251 = CIRCLE ( 'NONE', #22, 0.1999999999999996503 ) ;
#252 = CIRCLE ( 'NONE', #256, 0.2000000000000000944 ) ;
#253 = LINE ( 'NONE', #228, #128 ) ;
#254 = COORDINATED_UNIVERSAL_TIME_OFFSET ( 1, 0, .AHEAD. ) ;
#255 = DIRECTION ( 'NONE',  ( -0.000000000000000000, -0.000000000000000000, -1.000000000000000000 ) ) ;
#256 = AXIS2_PLACEMENT_3D ( 'NONE', #174, #131, #193 ) ;
#257 = PRODUCT ( 'b2e6', 'b2e6', '', ( #99 ) ) ;
#258 = VERTEX_POINT ( 'NONE', #182 ) ;
#259 = AXIS2_PLACEMENT_3D ( 'NONE', #97, #151, #79 ) ;
#260 = ORIENTED_EDGE ( 'NONE', *, *, #302, .F. ) ;
#261 = PERSON_AND_ORGANIZATION_ROLE ( 'design_owner' ) ;
#262 = VERTEX_POINT ( 'NONE', #137 ) ;
#263 = DIRECTION ( 'NONE',  ( 1.000000000000000000, 0.000000000000000000, -0.000000000000000000 ) ) ;
#264 = PERSON_AND_ORGANIZATION ( #3, #223 ) ;
#265 = DIRECTION ( 'NONE',  ( 1.000000000000000000, 0.000000000000000000, 0.000000000000000000 ) ) ;
#266 = DATE_AND_TIME ( #194, #269 ) ;
#267 = ORIENTED_EDGE ( 'NONE', *, *, #106, .F. ) ;
#268 = ORIENTED_EDGE ( 'NONE', *, *, #155, .F. ) ;
#269 = LOCAL_TIME ( 12, 9, 48.00000000000000000, #211 ) ;
#270 = VECTOR ( 'NONE', #94, 1000.000000000000000 ) ;
#271 = ORIENTED_EDGE ( 'NONE', *, *, #216, .T. ) ;
#272 = VECTOR ( 'NONE', #48, 1000.000000000000000 ) ;
#273 = DIRECTION ( 'NONE',  ( 1.000000000000000000, 0.000000000000000000, -0.000000000000000000 ) ) ;
#274 = ADVANCED_FACE ( 'NONE', ( #220 ), #300, .T. ) ;
#275 = EDGE_CURVE ( 'NONE', #262, #240, #10, .T. ) ;
#276 = DIRECTION ( 'NONE',  ( -1.000000000000000000, 0.000000000000000000, 0.000000000000000000 ) ) ;
#277 = CARTESIAN_POINT ( 'NONE',  ( 6.000000000000000888, 7.347880794884120722E-16, 5.000000000000000000 ) ) ;
#278 = DATE_AND_TIME ( #119, #58 ) ;
#279 = AXIS2_PLACEMENT_3D ( 'NONE', #14, #241, #297 ) ;
#280 = CYLINDRICAL_SURFACE ( 'NONE', #303, 6.000000000000000888 ) ;
#281 = APPROVAL_STATUS ( 'not_yet_approved' ) ;
#282 = COORDINATED_UNIVERSAL_TIME_OFFSET ( 1, 0, .AHEAD. ) ;
#283 = AXIS2_PLACEMENT_3D ( 'NONE', #159, #181, #206 ) ;
#284 = CC_DESIGN_PERSON_AND_ORGANIZATION_ASSIGNMENT ( #47, #121, ( #15 ) ) ;
#285 = PERSON_AND_ORGANIZATION ( #3, #223 ) ;
#286 = EDGE_LOOP ( 'NONE', ( #126, #80 ) ) ;
#287 = ORIENTED_EDGE ( 'NONE', *, *, #226, .F. ) ;
#288 = EDGE_LOOP ( 'NONE', ( #176, #129, #35, #293 ) ) ;
#289 = DIRECTION ( 'NONE',  ( -0.000000000000000000, -0.000000000000000000, -1.000000000000000000 ) ) ;
#290 = PERSON_AND_ORGANIZATION ( #3, #223 ) ;
#291 = CARTESIAN_POINT ( 'NONE',  ( 0.000000000000000000, 0.000000000000000000, 5.199999999999996625 ) ) ;
#292 = DATE_TIME_ROLE ( 'creation_date' ) ;
#293 = ORIENTED_EDGE ( 'NONE', *, *, #296, .F. ) ;
#294 = CARTESIAN_POINT ( 'NONE',  ( -3.250000000000000444, 0.000000000000000000, 5.199999999999996625 ) ) ;
#295 = VERTEX_POINT ( 'NONE', #204 ) ;
#296 = EDGE_CURVE ( 'NONE', #214, #258, #251, .T. ) ;
#297 = DIRECTION ( 'NONE',  ( 1.000000000000000000, 0.000000000000000000, 0.000000000000000000 ) ) ;
#298 = CIRCLE ( 'NONE', #224, 6.000000000000000888 ) ;
#299 = EDGE_CURVE ( 'NONE', #145, #262, #5, .T. ) ;
#300 = CYLINDRICAL_SURFACE ( 'NONE', #140, 6.000000000000000888 ) ;
#301 = CC_DESIGN_APPROVAL ( #249, ( #158 ) ) ;
#302 = EDGE_CURVE ( 'NONE', #168, #101, #103, .T. ) ;
#303 = AXIS2_PLACEMENT_3D ( 'NONE', #221, #255, #118 ) ;
#304 = PERSON_AND_ORGANIZATION ( #3, #223 ) ;
#305 = DIRECTION ( 'NONE',  ( -0.000000000000000000, -0.000000000000000000, -1.000000000000000000 ) ) ;
#306 = CARTESIAN_POINT ( 'NONE',  ( 0.000000000000000000, 0.000000000000000000, 5.199999999999996625 ) ) ;
#307 = LINE ( 'NONE', #246, #270 ) ;
ENDSEC;
END-ISO-10303-21;
