ISO-10303-21;
HEADER;
FILE_DESCRIPTION (( 'STEP AP203' ),
    '1' );
FILE_NAME ('affa.STEP',
    '2022-07-07T10:26:00',
    ( '' ),
    ( '' ),
    'SwSTEP 2.0',
    'SolidWorks 2019',
    '' );
FILE_SCHEMA (( 'CONFIG_CONTROL_DESIGN' ));
ENDSEC;

DATA;
#1 = APPLICATION_PROTOCOL_DEFINITION ( 'international standard', 'config_control_design', 1994, #269 ) ;
#2 = EDGE_LOOP ( 'NONE', ( #6, #104 ) ) ;
#3 = APPROVAL_DATE_TIME ( #25, #158 ) ;
#4 = EDGE_CURVE ( 'NONE', #307, #245, #156, .T. ) ;
#5 = CALENDAR_DATE ( 2022, 7, 7 ) ;
#6 = ORIENTED_EDGE ( 'NONE', *, *, #112, .T. ) ;
#7 = VERTEX_POINT ( 'NONE', #77 ) ;
#8 = AXIS2_PLACEMENT_3D ( 'NONE', #89, #109, #299 ) ;
#9 = VERTEX_POINT ( 'NONE', #202 ) ;
#10 = DIRECTION ( 'NONE',  ( 1.000000000000000000, 0.000000000000000000, 0.000000000000000000 ) ) ;
#11 = DIRECTION ( 'NONE',  ( 0.000000000000000000, 0.000000000000000000, 1.000000000000000000 ) ) ;
#12 = LINE ( 'NONE', #161, #223 ) ;
#13 = PRODUCT_RELATED_PRODUCT_CATEGORY ( 'detail', '', ( #303 ) ) ;
#14 = FACE_OUTER_BOUND ( 'NONE', #53, .T. ) ;
#15 = CARTESIAN_POINT ( 'NONE',  ( 0.000000000000000000, 0.000000000000000000, 253.0000000000000000 ) ) ;
#16 = ADVANCED_BREP_SHAPE_REPRESENTATION ( 'affa', ( #244, #273 ), #222 ) ;
#17 = CARTESIAN_POINT ( 'NONE',  ( 0.000000000000000000, 0.000000000000000000, 3.000000000000000000 ) ) ;
#18 = DATE_TIME_ROLE ( 'creation_date' ) ;
#19 = CIRCLE ( 'NONE', #230, 2.000000000000000000 ) ;
#20 = PERSON_AND_ORGANIZATION_ROLE ( 'creator' ) ;
#21 = ORIENTED_EDGE ( 'NONE', *, *, #86, .T. ) ;
#22 = AXIS2_PLACEMENT_3D ( 'NONE', #113, #257, #42 ) ;
#23 = CC_DESIGN_PERSON_AND_ORGANIZATION_ASSIGNMENT ( #214, #304, ( #186 ) ) ;
#24 = FACE_OUTER_BOUND ( 'NONE', #70, .T. ) ;
#25 = DATE_AND_TIME ( #191, #126 ) ;
#26 = CIRCLE ( 'NONE', #121, 4.000000000000000000 ) ;
#27 = EDGE_CURVE ( 'NONE', #307, #102, #80, .T. ) ;
#28 = DIRECTION ( 'NONE',  ( 0.000000000000000000, 0.000000000000000000, 1.000000000000000000 ) ) ;
#29 = AXIS2_PLACEMENT_3D ( 'NONE', #281, #254, #66 ) ;
#30 = ORIENTED_EDGE ( 'NONE', *, *, #64, .F. ) ;
#31 = AXIS2_PLACEMENT_3D ( 'NONE', #135, #237, #168 ) ;
#32 = DIRECTION ( 'NONE',  ( -0.000000000000000000, -0.000000000000000000, -1.000000000000000000 ) ) ;
#33 = DIRECTION ( 'NONE',  ( 0.000000000000000000, 0.000000000000000000, 1.000000000000000000 ) ) ;
#34 = CIRCLE ( 'NONE', #179, 2.200000000000000178 ) ;
#35 = FACE_OUTER_BOUND ( 'NONE', #98, .T. ) ;
#36 = EDGE_CURVE ( 'NONE', #102, #9, #96, .T. ) ;
#37 = FACE_OUTER_BOUND ( 'NONE', #153, .T. ) ;
#38 = FACE_OUTER_BOUND ( 'NONE', #151, .T. ) ;
#39 = APPROVAL ( #101, 'NEURÈENÝ' ) ;
#40 = CARTESIAN_POINT ( 'NONE',  ( 4.000000000000000000, 4.898587196589412829E-16, 0.000000000000000000 ) ) ;
#41 = CIRCLE ( 'NONE', #242, 2.200000000000000178 ) ;
#42 = DIRECTION ( 'NONE',  ( -1.000000000000000000, 0.000000000000000000, 0.000000000000000000 ) ) ;
#43 = PERSON_AND_ORGANIZATION ( #190, #241 ) ;
#44 = DATE_AND_TIME ( #95, #142 ) ;
#45 = CC_DESIGN_APPROVAL ( #39, ( #73 ) ) ;
#46 = ORIENTED_EDGE ( 'NONE', *, *, #36, .F. ) ;
#47 = COORDINATED_UNIVERSAL_TIME_OFFSET ( 1, 0, .AHEAD. ) ;
#48 =( LENGTH_UNIT ( ) NAMED_UNIT ( * ) SI_UNIT ( .MILLI., .METRE. ) );
#49 = EDGE_CURVE ( 'NONE', #102, #7, #171, .T. ) ;
#50 = AXIS2_PLACEMENT_3D ( 'NONE', #272, #28, #251 ) ;
#51 = ORIENTED_EDGE ( 'NONE', *, *, #206, .T. ) ;
#52 = DATE_AND_TIME ( #5, #218 ) ;
#53 = EDGE_LOOP ( 'NONE', ( #295, #116, #165, #125 ) ) ;
#54 = COORDINATED_UNIVERSAL_TIME_OFFSET ( 1, 0, .AHEAD. ) ;
#55 = ORIENTED_EDGE ( 'NONE', *, *, #133, .T. ) ;
#56 = ADVANCED_FACE ( 'NONE', ( #228 ), #175, .T. ) ;
#57 = DIRECTION ( 'NONE',  ( 0.000000000000000000, 0.000000000000000000, 1.000000000000000000 ) ) ;
#58 = ORIENTED_EDGE ( 'NONE', *, *, #4, .F. ) ;
#59 = CYLINDRICAL_SURFACE ( 'NONE', #279, 4.000000000000000000 ) ;
#60 = EDGE_CURVE ( 'NONE', #245, #307, #19, .T. ) ;
#61 = DIRECTION ( 'NONE',  ( -0.000000000000000000, -0.000000000000000000, -1.000000000000000000 ) ) ;
#62 = LOCAL_TIME ( 12, 26, 0.000000000000000000, #262 ) ;
#63 = FACE_OUTER_BOUND ( 'NONE', #275, .T. ) ;
#64 = EDGE_CURVE ( 'NONE', #85, #106, #199, .T. ) ;
#65 = DIRECTION ( 'NONE',  ( -0.000000000000000000, -0.000000000000000000, -1.000000000000000000 ) ) ;
#66 = DIRECTION ( 'NONE',  ( 1.000000000000000000, 0.000000000000000000, 0.000000000000000000 ) ) ;
#67 = CC_DESIGN_SECURITY_CLASSIFICATION ( #73, ( #186 ) ) ;
#68 = VECTOR ( 'NONE', #61, 1000.000000000000000 ) ;
#69 = CARTESIAN_POINT ( 'NONE',  ( 0.000000000000000000, 0.000000000000000000, 3.000000000000000000 ) ) ;
#70 = EDGE_LOOP ( 'NONE', ( #21, #182 ) ) ;
#71 = DIRECTION ( 'NONE',  ( 1.000000000000000000, 0.000000000000000000, 0.000000000000000000 ) ) ;
#72 = APPROVAL_STATUS ( 'not_yet_approved' ) ;
#73 = SECURITY_CLASSIFICATION ( '', '', #283 ) ;
#74 = CC_DESIGN_APPROVAL ( #158, ( #186 ) ) ;
#75 = EDGE_CURVE ( 'NONE', #252, #7, #34, .T. ) ;
#76 = DIRECTION ( 'NONE',  ( 0.000000000000000000, 0.000000000000000000, 1.000000000000000000 ) ) ;
#77 = CARTESIAN_POINT ( 'NONE',  ( 2.200000000000000178, 0.000000000000000000, 3.000000000000004441 ) ) ;
#78 = DIRECTION ( 'NONE',  ( -0.000000000000000000, -0.000000000000000000, -1.000000000000000000 ) ) ;
#79 = UNCERTAINTY_MEASURE_WITH_UNIT (LENGTH_MEASURE( 1.000000000000000082E-05 ), #48, 'distance_accuracy_value', 'NONE');
#80 = LINE ( 'NONE', #124, #130 ) ;
#81 = CC_DESIGN_PERSON_AND_ORGANIZATION_ASSIGNMENT ( #43, #259, ( #303 ) ) ;
#82 = CARTESIAN_POINT ( 'NONE',  ( 0.000000000000000000, 0.000000000000000000, 253.0000000000000000 ) ) ;
#83 = AXIS2_PLACEMENT_3D ( 'NONE', #270, #198, #203 ) ;
#84 = PERSON_AND_ORGANIZATION_ROLE ( 'classification_officer' ) ;
#85 = VERTEX_POINT ( 'NONE', #229 ) ;
#86 = EDGE_CURVE ( 'NONE', #174, #139, #119, .T. ) ;
#87 = CARTESIAN_POINT ( 'NONE',  ( -2.000000000000000000, 0.000000000000000000, 253.0000000000000000 ) ) ;
#88 = DIRECTION ( 'NONE',  ( -1.000000000000000000, 1.224646799147353207E-16, 0.000000000000000000 ) ) ;
#89 = CARTESIAN_POINT ( 'NONE',  ( 0.000000000000000000, 0.000000000000000000, 3.200000000000008171 ) ) ;
#90 = CARTESIAN_POINT ( 'NONE',  ( 0.000000000000000000, 0.000000000000000000, 3.200000000000008171 ) ) ;
#91 = LINE ( 'NONE', #205, #233 ) ;
#92 = ADVANCED_FACE ( 'NONE', ( #14 ), #216, .F. ) ;
#93 = AXIS2_PLACEMENT_3D ( 'NONE', #301, #155, #278 ) ;
#94 = DIRECTION ( 'NONE',  ( 1.000000000000000000, 0.000000000000000000, 0.000000000000000000 ) ) ;
#95 = CALENDAR_DATE ( 2022, 7, 7 ) ;
#96 = CIRCLE ( 'NONE', #271, 2.000000000000000000 ) ;
#97 = APPLICATION_PROTOCOL_DEFINITION ( 'international standard', 'config_control_design', 1994, #215 ) ;
#98 = EDGE_LOOP ( 'NONE', ( #268, #225, #51, #239 ) ) ;
#99 = PRODUCT_DEFINITION ( 'NEZNÁMÝ', '', #186, #177 ) ;
#100 = COORDINATED_UNIVERSAL_TIME_OFFSET ( 1, 0, .AHEAD. ) ;
#101 = APPROVAL_STATUS ( 'not_yet_approved' ) ;
#102 = VERTEX_POINT ( 'NONE', #208 ) ;
#103 = CC_DESIGN_PERSON_AND_ORGANIZATION_ASSIGNMENT ( #220, #196, ( #186 ) ) ;
#104 = ORIENTED_EDGE ( 'NONE', *, *, #75, .T. ) ;
#105 = TOROIDAL_SURFACE ( 'NONE', #8, 2.200000000000000178, 0.2000000000000000111 ) ;
#106 = VERTEX_POINT ( 'NONE', #40 ) ;
#107 = CARTESIAN_POINT ( 'NONE',  ( 0.000000000000000000, 0.000000000000000000, 253.0000000000000000 ) ) ;
#108 = LINE ( 'NONE', #189, #68 ) ;
#109 = DIRECTION ( 'NONE',  ( 0.000000000000000000, 0.000000000000000000, 1.000000000000000000 ) ) ;
#110 = DIRECTION ( 'NONE',  ( 0.000000000000000000, 0.000000000000000000, 1.000000000000000000 ) ) ;
#111 = DIRECTION ( 'NONE',  ( 1.000000000000000000, 0.000000000000000000, -0.000000000000000000 ) ) ;
#112 = EDGE_CURVE ( 'NONE', #7, #252, #41, .T. ) ;
#113 = CARTESIAN_POINT ( 'NONE',  ( 0.000000000000000000, 0.000000000000000000, 253.0000000000000000 ) ) ;
#114 = PERSON_AND_ORGANIZATION ( #190, #241 ) ;
#115 = MECHANICAL_CONTEXT ( 'NONE', #269, 'mechanical' ) ;
#116 = ORIENTED_EDGE ( 'NONE', *, *, #235, .T. ) ;
#117 = PRODUCT_DEFINITION_SHAPE ( 'NONE', 'NONE',  #99 ) ;
#118 = ORIENTED_EDGE ( 'NONE', *, *, #173, .T. ) ;
#119 = CIRCLE ( 'NONE', #294, 4.000000000000000000 ) ;
#120 = APPROVAL_STATUS ( 'not_yet_approved' ) ;
#121 = AXIS2_PLACEMENT_3D ( 'NONE', #144, #169, #71 ) ;
#122 = CIRCLE ( 'NONE', #297, 0.2000000000000000944 ) ;
#123 = ORIENTED_EDGE ( 'NONE', *, *, #133, .F. ) ;
#124 = CARTESIAN_POINT ( 'NONE',  ( 2.000000000000000000, 2.449293598294706414E-16, 253.0000000000000000 ) ) ;
#125 = ORIENTED_EDGE ( 'NONE', *, *, #49, .F. ) ;
#126 = LOCAL_TIME ( 12, 26, 0.000000000000000000, #47 ) ;
#127 = DIRECTION ( 'NONE',  ( 1.000000000000000000, 0.000000000000000000, 0.000000000000000000 ) ) ;
#128 = DIRECTION ( 'NONE',  ( 1.000000000000000000, 0.000000000000000000, 0.000000000000000000 ) ) ;
#129 = CARTESIAN_POINT ( 'NONE',  ( 2.200000000000000178, 0.000000000000000000, 3.200000000000008171 ) ) ;
#130 = VECTOR ( 'NONE', #78, 1000.000000000000000 ) ;
#131 = CARTESIAN_POINT ( 'NONE',  ( 0.000000000000000000, 0.000000000000000000, 3.000000000000000000 ) ) ;
#132 = PLANE ( 'NONE',  #227 ) ;
#133 = EDGE_CURVE ( 'NONE', #245, #9, #108, .T. ) ;
#134 = DIRECTION ( 'NONE',  ( 1.224646799147353207E-16, 1.000000000000000000, -0.000000000000000000 ) ) ;
#135 = CARTESIAN_POINT ( 'NONE',  ( 0.000000000000000000, 0.000000000000000000, 0.000000000000000000 ) ) ;
#136 = DIRECTION ( 'NONE',  ( -1.000000000000000000, 0.000000000000000000, 0.000000000000000000 ) ) ;
#137 = EDGE_CURVE ( 'NONE', #139, #106, #91, .T. ) ;
#138 = PERSON_AND_ORGANIZATION ( #190, #241 ) ;
#139 = VERTEX_POINT ( 'NONE', #159 ) ;
#140 = APPROVAL_ROLE ( '' ) ;
#141 = EDGE_LOOP ( 'NONE', ( #204, #163, #55, #265 ) ) ;
#142 = LOCAL_TIME ( 12, 26, 0.000000000000000000, #100 ) ;
#143 = CARTESIAN_POINT ( 'NONE',  ( 2.000000000000000000, 2.449293598294706414E-16, 253.0000000000000000 ) ) ;
#144 = CARTESIAN_POINT ( 'NONE',  ( 0.000000000000000000, 0.000000000000000000, 3.000000000000000000 ) ) ;
#145 = AXIS2_PLACEMENT_3D ( 'NONE', #129, #149, #147 ) ;
#146 = LOCAL_TIME ( 12, 26, 0.000000000000000000, #150 ) ;
#147 = DIRECTION ( 'NONE',  ( 0.000000000000000000, 0.000000000000000000, -1.000000000000000000 ) ) ;
#148 = ADVANCED_FACE ( 'NONE', ( #277 ), #302, .T. ) ;
#149 = DIRECTION ( 'NONE',  ( 0.000000000000000000, -1.000000000000000000, 0.000000000000000000 ) ) ;
#150 = COORDINATED_UNIVERSAL_TIME_OFFSET ( 1, 0, .AHEAD. ) ;
#151 = EDGE_LOOP ( 'NONE', ( #195, #46, #248, #249 ) ) ;
#152 = APPROVAL ( #72, 'NEURÈENÝ' ) ;
#153 = EDGE_LOOP ( 'NONE', ( #293, #224 ) ) ;
#154 = ORIENTED_EDGE ( 'NONE', *, *, #289, .F. ) ;
#155 = DIRECTION ( 'NONE',  ( 0.000000000000000000, 0.000000000000000000, 1.000000000000000000 ) ) ;
#156 = CIRCLE ( 'NONE', #219, 2.000000000000000000 ) ;
#157 = DIRECTION ( 'NONE',  ( 1.000000000000000000, 0.000000000000000000, 0.000000000000000000 ) ) ;
#158 = APPROVAL ( #120, 'NEURÈENÝ' ) ;
#159 = CARTESIAN_POINT ( 'NONE',  ( 4.000000000000000000, 4.898587196589412829E-16, 3.000000000000000000 ) ) ;
#160 = CC_DESIGN_PERSON_AND_ORGANIZATION_ASSIGNMENT ( #217, #84, ( #73 ) ) ;
#161 = CARTESIAN_POINT ( 'NONE',  ( -4.000000000000000000, 0.000000000000000000, 3.000000000000000000 ) ) ;
#162 = CIRCLE ( 'NONE', #285, 2.000000000000000000 ) ;
#163 = ORIENTED_EDGE ( 'NONE', *, *, #60, .F. ) ;
#164 = PLANE ( 'NONE',  #305 ) ;
#165 = ORIENTED_EDGE ( 'NONE', *, *, #112, .F. ) ;
#166 = CARTESIAN_POINT ( 'NONE',  ( 0.000000000000000000, 0.000000000000000000, 0.000000000000000000 ) ) ;
#167 = CC_DESIGN_DATE_AND_TIME_ASSIGNMENT ( #181, #172, ( #73 ) ) ;
#168 = DIRECTION ( 'NONE',  ( 1.000000000000000000, 0.000000000000000000, -0.000000000000000000 ) ) ;
#169 = DIRECTION ( 'NONE',  ( 0.000000000000000000, 0.000000000000000000, 1.000000000000000000 ) ) ;
#170 = ORIENTED_EDGE ( 'NONE', *, *, #36, .T. ) ;
#171 = CIRCLE ( 'NONE', #145, 0.2000000000000000944 ) ;
#172 = DATE_TIME_ROLE ( 'classification_date' ) ;
#173 = EDGE_CURVE ( 'NONE', #106, #85, #250, .T. ) ;
#174 = VERTEX_POINT ( 'NONE', #183 ) ;
#175 = CYLINDRICAL_SURFACE ( 'NONE', #83, 4.000000000000000000 ) ;
#176 = CARTESIAN_POINT ( 'NONE',  ( 0.000000000000000000, 0.000000000000000000, 3.200000000000008171 ) ) ;
#177 = DESIGN_CONTEXT ( 'detailed design', #215, 'design' ) ;
#178 = ADVANCED_FACE ( 'NONE', ( #282 ), #236, .T. ) ;
#179 = AXIS2_PLACEMENT_3D ( 'NONE', #288, #32, #128 ) ;
#180 = DIRECTION ( 'NONE',  ( 1.000000000000000000, 0.000000000000000000, 0.000000000000000000 ) ) ;
#181 = DATE_AND_TIME ( #267, #146 ) ;
#182 = ORIENTED_EDGE ( 'NONE', *, *, #289, .T. ) ;
#183 = CARTESIAN_POINT ( 'NONE',  ( -4.000000000000000000, 0.000000000000000000, 3.000000000000000000 ) ) ;
#184 = CARTESIAN_POINT ( 'NONE',  ( -2.200000000000000178, 2.694222958124177006E-16, 3.000000000000004441 ) ) ;
#185 = CC_DESIGN_DATE_AND_TIME_ASSIGNMENT ( #194, #18, ( #99 ) ) ;
#186 = PRODUCT_DEFINITION_FORMATION_WITH_SPECIFIED_SOURCE ( 'LIBOVOLNÝ', '', #303, .NOT_KNOWN. ) ;
#187 = DIRECTION ( 'NONE',  ( 1.000000000000000000, 0.000000000000000000, 0.000000000000000000 ) ) ;
#188 = DIRECTION ( 'NONE',  ( 0.000000000000000000, 0.000000000000000000, 1.000000000000000000 ) ) ;
#189 = CARTESIAN_POINT ( 'NONE',  ( -2.000000000000000000, 0.000000000000000000, 253.0000000000000000 ) ) ;
#190 = PERSON ( 'NEURÈENÝ', 'NEURÈENÝ', 'NEURÈENÝ', ('NEURÈENÝ'), ('NEURÈENÝ'), ('NEURÈENÝ') ) ;
#191 = CALENDAR_DATE ( 2022, 7, 7 ) ;
#192 = APPROVAL_ROLE ( '' ) ;
#193 = PERSON_AND_ORGANIZATION ( #190, #241 ) ;
#194 = DATE_AND_TIME ( #260, #62 ) ;
#195 = ORIENTED_EDGE ( 'NONE', *, *, #235, .F. ) ;
#196 = PERSON_AND_ORGANIZATION_ROLE ( 'creator' ) ;
#197 = ADVANCED_FACE ( 'NONE', ( #35 ), #59, .T. ) ;
#198 = DIRECTION ( 'NONE',  ( -0.000000000000000000, -0.000000000000000000, -1.000000000000000000 ) ) ;
#199 = CIRCLE ( 'NONE', #50, 4.000000000000000000 ) ;
#200 = ORIENTED_EDGE ( 'NONE', *, *, #173, .F. ) ;
#201 = APPROVAL_DATE_TIME ( #52, #39 ) ;
#202 = CARTESIAN_POINT ( 'NONE',  ( -2.000000000000000000, 0.000000000000000000, 3.200000000000008171 ) ) ;
#203 = DIRECTION ( 'NONE',  ( -1.000000000000000000, 0.000000000000000000, 0.000000000000000000 ) ) ;
#204 = ORIENTED_EDGE ( 'NONE', *, *, #27, .F. ) ;
#205 = CARTESIAN_POINT ( 'NONE',  ( 4.000000000000000000, 4.898587196589412829E-16, 3.000000000000000000 ) ) ;
#206 = EDGE_CURVE ( 'NONE', #174, #85, #12, .T. ) ;
#207 = DIRECTION ( 'NONE',  ( 1.000000000000000000, 0.000000000000000000, 0.000000000000000000 ) ) ;
#208 = CARTESIAN_POINT ( 'NONE',  ( 2.000000000000000000, 2.449293598294706414E-16, 3.200000000000008171 ) ) ;
#209 = CC_DESIGN_APPROVAL ( #152, ( #99 ) ) ;
#210 = CARTESIAN_POINT ( 'NONE',  ( 0.000000000000000000, 0.000000000000000000, 3.000000000000000000 ) ) ;
#211 = ADVANCED_FACE ( 'NONE', ( #38 ), #105, .F. ) ;
#212 = APPROVAL_PERSON_ORGANIZATION ( #138, #152, #192 ) ;
#213 = DIRECTION ( 'NONE',  ( -0.000000000000000000, -0.000000000000000000, -1.000000000000000000 ) ) ;
#214 = PERSON_AND_ORGANIZATION ( #190, #241 ) ;
#215 = APPLICATION_CONTEXT ( 'configuration controlled 3d designs of mechanical parts and assemblies' ) ;
#216 = TOROIDAL_SURFACE ( 'NONE', #29, 2.200000000000000178, 0.2000000000000000111 ) ;
#217 = PERSON_AND_ORGANIZATION ( #190, #241 ) ;
#218 = LOCAL_TIME ( 12, 26, 0.000000000000000000, #54 ) ;
#219 = AXIS2_PLACEMENT_3D ( 'NONE', #82, #33, #127 ) ;
#220 = PERSON_AND_ORGANIZATION ( #190, #241 ) ;
#221 = CC_DESIGN_PERSON_AND_ORGANIZATION_ASSIGNMENT ( #193, #20, ( #99 ) ) ;
#222 =( GEOMETRIC_REPRESENTATION_CONTEXT ( 3 ) GLOBAL_UNCERTAINTY_ASSIGNED_CONTEXT ( ( #79 ) ) GLOBAL_UNIT_ASSIGNED_CONTEXT ( ( #48, #243, #246 ) ) REPRESENTATION_CONTEXT ( 'NONE', 'WORKASPACE' ) );
#223 = VECTOR ( 'NONE', #255, 1000.000000000000000 ) ;
#224 = ORIENTED_EDGE ( 'NONE', *, *, #4, .T. ) ;
#225 = ORIENTED_EDGE ( 'NONE', *, *, #86, .F. ) ;
#226 = ORIENTED_EDGE ( 'NONE', *, *, #206, .F. ) ;
#227 = AXIS2_PLACEMENT_3D ( 'NONE', #15, #234, #111 ) ;
#228 = FACE_OUTER_BOUND ( 'NONE', #291, .T. ) ;
#229 = CARTESIAN_POINT ( 'NONE',  ( -4.000000000000000000, 0.000000000000000000, 0.000000000000000000 ) ) ;
#230 = AXIS2_PLACEMENT_3D ( 'NONE', #107, #57, #180 ) ;
#231 = ORIENTED_EDGE ( 'NONE', *, *, #27, .T. ) ;
#232 = DIRECTION ( 'NONE',  ( -0.000000000000000000, -0.000000000000000000, -1.000000000000000000 ) ) ;
#233 = VECTOR ( 'NONE', #213, 1000.000000000000000 ) ;
#234 = DIRECTION ( 'NONE',  ( 0.000000000000000000, 0.000000000000000000, 1.000000000000000000 ) ) ;
#235 = EDGE_CURVE ( 'NONE', #9, #252, #122, .T. ) ;
#236 = CYLINDRICAL_SURFACE ( 'NONE', #22, 2.000000000000000000 ) ;
#237 = DIRECTION ( 'NONE',  ( 0.000000000000000000, 0.000000000000000000, 1.000000000000000000 ) ) ;
#238 = AXIS2_PLACEMENT_3D ( 'NONE', #276, #253, #136 ) ;
#239 = ORIENTED_EDGE ( 'NONE', *, *, #64, .T. ) ;
#240 = DIRECTION ( 'NONE',  ( 1.000000000000000000, 0.000000000000000000, -0.000000000000000000 ) ) ;
#241 = ORGANIZATION ( 'NEURÈENÝ', 'NEURÈENÝ', '' ) ;
#242 = AXIS2_PLACEMENT_3D ( 'NONE', #131, #65, #207 ) ;
#243 =( NAMED_UNIT ( * ) PLANE_ANGLE_UNIT ( ) SI_UNIT ( $, .RADIAN. ) );
#244 = MANIFOLD_SOLID_BREP ( 'Zaoblit1', #263 ) ;
#245 = VERTEX_POINT ( 'NONE', #87 ) ;
#246 =( NAMED_UNIT ( * ) SI_UNIT ( $, .STERADIAN. ) SOLID_ANGLE_UNIT ( ) );
#247 = ORIENTED_EDGE ( 'NONE', *, *, #137, .T. ) ;
#248 = ORIENTED_EDGE ( 'NONE', *, *, #49, .T. ) ;
#249 = ORIENTED_EDGE ( 'NONE', *, *, #75, .F. ) ;
#250 = CIRCLE ( 'NONE', #93, 4.000000000000000000 ) ;
#251 = DIRECTION ( 'NONE',  ( 1.000000000000000000, 0.000000000000000000, 0.000000000000000000 ) ) ;
#252 = VERTEX_POINT ( 'NONE', #184 ) ;
#253 = DIRECTION ( 'NONE',  ( -0.000000000000000000, -0.000000000000000000, -1.000000000000000000 ) ) ;
#254 = DIRECTION ( 'NONE',  ( 0.000000000000000000, 0.000000000000000000, 1.000000000000000000 ) ) ;
#255 = DIRECTION ( 'NONE',  ( -0.000000000000000000, -0.000000000000000000, -1.000000000000000000 ) ) ;
#256 = PLANE ( 'NONE',  #31 ) ;
#257 = DIRECTION ( 'NONE',  ( -0.000000000000000000, -0.000000000000000000, -1.000000000000000000 ) ) ;
#258 = ADVANCED_FACE ( 'NONE', ( #37 ), #132, .T. ) ;
#259 = PERSON_AND_ORGANIZATION_ROLE ( 'design_owner' ) ;
#260 = CALENDAR_DATE ( 2022, 7, 7 ) ;
#261 = EDGE_CURVE ( 'NONE', #9, #102, #162, .T. ) ;
#262 = COORDINATED_UNIVERSAL_TIME_OFFSET ( 1, 0, .AHEAD. ) ;
#263 = CLOSED_SHELL ( 'NONE', ( #92, #148, #56, #197, #280, #274, #178, #258, #211 ) ) ;
#264 = SHAPE_DEFINITION_REPRESENTATION ( #117, #16 ) ;
#265 = ORIENTED_EDGE ( 'NONE', *, *, #261, .T. ) ;
#266 = APPROVAL_PERSON_ORGANIZATION ( #287, #39, #292 ) ;
#267 = CALENDAR_DATE ( 2022, 7, 7 ) ;
#268 = ORIENTED_EDGE ( 'NONE', *, *, #137, .F. ) ;
#269 = APPLICATION_CONTEXT ( 'configuration controlled 3d designs of mechanical parts and assemblies' ) ;
#270 = CARTESIAN_POINT ( 'NONE',  ( 0.000000000000000000, 0.000000000000000000, 3.000000000000000000 ) ) ;
#271 = AXIS2_PLACEMENT_3D ( 'NONE', #176, #11, #10 ) ;
#272 = CARTESIAN_POINT ( 'NONE',  ( 0.000000000000000000, 0.000000000000000000, 0.000000000000000000 ) ) ;
#273 = AXIS2_PLACEMENT_3D ( 'NONE', #166, #286, #94 ) ;
#274 = ADVANCED_FACE ( 'NONE', ( #63 ), #256, .F. ) ;
#275 = EDGE_LOOP ( 'NONE', ( #30, #200 ) ) ;
#276 = CARTESIAN_POINT ( 'NONE',  ( 0.000000000000000000, 0.000000000000000000, 253.0000000000000000 ) ) ;
#277 = FACE_OUTER_BOUND ( 'NONE', #290, .T. ) ;
#278 = DIRECTION ( 'NONE',  ( 1.000000000000000000, 0.000000000000000000, 0.000000000000000000 ) ) ;
#279 = AXIS2_PLACEMENT_3D ( 'NONE', #17, #232, #300 ) ;
#280 = ADVANCED_FACE ( 'NONE', ( #284, #24 ), #164, .T. ) ;
#281 = CARTESIAN_POINT ( 'NONE',  ( 0.000000000000000000, 0.000000000000000000, 3.200000000000008171 ) ) ;
#282 = FACE_OUTER_BOUND ( 'NONE', #141, .T. ) ;
#283 = SECURITY_CLASSIFICATION_LEVEL ( 'unclassified' ) ;
#284 = FACE_BOUND ( 'NONE', #2, .T. ) ;
#285 = AXIS2_PLACEMENT_3D ( 'NONE', #90, #110, #187 ) ;
#286 = DIRECTION ( 'NONE',  ( 0.000000000000000000, 0.000000000000000000, 1.000000000000000000 ) ) ;
#287 = PERSON_AND_ORGANIZATION ( #190, #241 ) ;
#288 = CARTESIAN_POINT ( 'NONE',  ( 0.000000000000000000, 0.000000000000000000, 3.000000000000000000 ) ) ;
#289 = EDGE_CURVE ( 'NONE', #139, #174, #26, .T. ) ;
#290 = EDGE_LOOP ( 'NONE', ( #58, #231, #170, #123 ) ) ;
#291 = EDGE_LOOP ( 'NONE', ( #154, #247, #118, #226 ) ) ;
#292 = APPROVAL_ROLE ( '' ) ;
#293 = ORIENTED_EDGE ( 'NONE', *, *, #60, .T. ) ;
#294 = AXIS2_PLACEMENT_3D ( 'NONE', #210, #188, #157 ) ;
#295 = ORIENTED_EDGE ( 'NONE', *, *, #261, .F. ) ;
#296 = APPROVAL_PERSON_ORGANIZATION ( #114, #158, #140 ) ;
#297 = AXIS2_PLACEMENT_3D ( 'NONE', #298, #134, #88 ) ;
#298 = CARTESIAN_POINT ( 'NONE',  ( -2.200000000000000178, 2.694222958124177006E-16, 3.200000000000008171 ) ) ;
#299 = DIRECTION ( 'NONE',  ( 1.000000000000000000, 0.000000000000000000, 0.000000000000000000 ) ) ;
#300 = DIRECTION ( 'NONE',  ( -1.000000000000000000, 0.000000000000000000, 0.000000000000000000 ) ) ;
#301 = CARTESIAN_POINT ( 'NONE',  ( 0.000000000000000000, 0.000000000000000000, 0.000000000000000000 ) ) ;
#302 = CYLINDRICAL_SURFACE ( 'NONE', #238, 2.000000000000000000 ) ;
#303 = PRODUCT ( 'affa', 'affa', '', ( #115 ) ) ;
#304 = PERSON_AND_ORGANIZATION_ROLE ( 'design_supplier' ) ;
#305 = AXIS2_PLACEMENT_3D ( 'NONE', #69, #76, #240 ) ;
#306 = APPROVAL_DATE_TIME ( #44, #152 ) ;
#307 = VERTEX_POINT ( 'NONE', #143 ) ;
ENDSEC;
END-ISO-10303-21;
