ISO-10303-21;
HEADER;
FILE_DESCRIPTION (( 'STEP AP203' ),
    '1' );
FILE_NAME ('4348.STEP',
    '2022-07-07T09:32:30',
    ( '' ),
    ( '' ),
    'SwSTEP 2.0',
    'SolidWorks 2019',
    '' );
FILE_SCHEMA (( 'CONFIG_CONTROL_DESIGN' ));
ENDSEC;

DATA;
#1 = DIRECTION ( 'NONE',  ( -1.000000000000000000, 0.000000000000000000, 0.000000000000000000 ) ) ;
#2 = COORDINATED_UNIVERSAL_TIME_OFFSET ( 1, 0, .AHEAD. ) ;
#3 = AXIS2_PLACEMENT_3D ( 'NONE', #155, #232, #58 ) ;
#4 = ORIENTED_EDGE ( 'NONE', *, *, #17, .T. ) ;
#5 = ORIENTED_EDGE ( 'NONE', *, *, #73, .T. ) ;
#6 = CARTESIAN_POINT ( 'NONE',  ( 0.000000000000000000, 0.000000000000000000, 10.20000000000001528 ) ) ;
#7 = CIRCLE ( 'NONE', #48, 16.00000000000000000 ) ;
#8 = CARTESIAN_POINT ( 'NONE',  ( 0.000000000000000000, 0.000000000000000000, 10.00000000000000000 ) ) ;
#9 = CC_DESIGN_APPROVAL ( #77, ( #162 ) ) ;
#10 = MANIFOLD_SOLID_BREP ( 'Zaoblit1', #127 ) ;
#11 = DIRECTION ( 'NONE',  ( -0.000000000000000000, -0.000000000000000000, -1.000000000000000000 ) ) ;
#12 = CYLINDRICAL_SURFACE ( 'NONE', #242, 12.50000000000000000 ) ;
#13 = DIRECTION ( 'NONE',  ( -0.000000000000000000, -0.000000000000000000, -1.000000000000000000 ) ) ;
#14 = FACE_OUTER_BOUND ( 'NONE', #281, .T. ) ;
#15 = APPROVAL ( #254, 'NEURÈENÝ' ) ;
#16 = DIRECTION ( 'NONE',  ( 1.224646799147353207E-16, 1.000000000000000000, -0.000000000000000000 ) ) ;
#17 = EDGE_CURVE ( 'NONE', #218, #255, #293, .T. ) ;
#18 = DIRECTION ( 'NONE',  ( 1.000000000000000000, 0.000000000000000000, 0.000000000000000000 ) ) ;
#19 = LOCAL_TIME ( 11, 32, 30.00000000000000000, #2 ) ;
#20 = APPROVAL_DATE_TIME ( #115, #88 ) ;
#21 = CARTESIAN_POINT ( 'NONE',  ( 0.000000000000000000, 0.000000000000000000, 10.00000000000000000 ) ) ;
#22 = ORIENTED_EDGE ( 'NONE', *, *, #189, .F. ) ;
#23 = PERSON_AND_ORGANIZATION ( #304, #233 ) ;
#24 = EDGE_CURVE ( 'NONE', #255, #54, #57, .T. ) ;
#25 = ORIENTED_EDGE ( 'NONE', *, *, #189, .T. ) ;
#26 = APPROVAL_ROLE ( '' ) ;
#27 = CARTESIAN_POINT ( 'NONE',  ( 0.000000000000000000, 0.000000000000000000, 170.0000000000000000 ) ) ;
#28 = EDGE_CURVE ( 'NONE', #81, #98, #174, .T. ) ;
#29 = DIRECTION ( 'NONE',  ( 0.000000000000000000, 0.000000000000000000, 1.000000000000000000 ) ) ;
#30 = CIRCLE ( 'NONE', #180, 0.2000000000000005107 ) ;
#31 = ORIENTED_EDGE ( 'NONE', *, *, #107, .T. ) ;
#32 = DATE_AND_TIME ( #178, #278 ) ;
#33 = ORIENTED_EDGE ( 'NONE', *, *, #283, .T. ) ;
#34 = PRODUCT_DEFINITION_SHAPE ( 'NONE', 'NONE',  #226 ) ;
#35 = CARTESIAN_POINT ( 'NONE',  ( -12.50000000000000000, 0.000000000000000000, 10.20000000000001528 ) ) ;
#36 = CYLINDRICAL_SURFACE ( 'NONE', #200, 16.00000000000000000 ) ;
#37 = PRODUCT ( '4348', '4348', '', ( #306 ) ) ;
#38 = DIRECTION ( 'NONE',  ( 0.000000000000000000, 0.000000000000000000, 1.000000000000000000 ) ) ;
#39 = DIRECTION ( 'NONE',  ( -0.000000000000000000, -0.000000000000000000, -1.000000000000000000 ) ) ;
#40 = CARTESIAN_POINT ( 'NONE',  ( 0.000000000000000000, 0.000000000000000000, 0.000000000000000000 ) ) ;
#41 = DIRECTION ( 'NONE',  ( -0.000000000000000000, -0.000000000000000000, -1.000000000000000000 ) ) ;
#42 = VERTEX_POINT ( 'NONE', #197 ) ;
#43 = AXIS2_PLACEMENT_3D ( 'NONE', #27, #125, #1 ) ;
#44 = AXIS2_PLACEMENT_3D ( 'NONE', #274, #157, #136 ) ;
#45 = COORDINATED_UNIVERSAL_TIME_OFFSET ( 1, 0, .AHEAD. ) ;
#46 =( LENGTH_UNIT ( ) NAMED_UNIT ( * ) SI_UNIT ( .MILLI., .METRE. ) );
#47 = VERTEX_POINT ( 'NONE', #122 ) ;
#48 = AXIS2_PLACEMENT_3D ( 'NONE', #108, #60, #133 ) ;
#49 = ORIENTED_EDGE ( 'NONE', *, *, #94, .T. ) ;
#50 = ORIENTED_EDGE ( 'NONE', *, *, #17, .F. ) ;
#51 = PERSON_AND_ORGANIZATION ( #304, #233 ) ;
#52 = DIRECTION ( 'NONE',  ( -0.000000000000000000, -0.000000000000000000, -1.000000000000000000 ) ) ;
#53 = AXIS2_PLACEMENT_3D ( 'NONE', #103, #240, #55 ) ;
#54 = VERTEX_POINT ( 'NONE', #219 ) ;
#55 = DIRECTION ( 'NONE',  ( 0.000000000000000000, 0.000000000000000000, -1.000000000000000000 ) ) ;
#56 = CARTESIAN_POINT ( 'NONE',  ( 0.000000000000000000, 0.000000000000000000, 10.20000000000001528 ) ) ;
#57 = CIRCLE ( 'NONE', #53, 0.2000000000000005107 ) ;
#58 = DIRECTION ( 'NONE',  ( 1.000000000000000000, 0.000000000000000000, 0.000000000000000000 ) ) ;
#59 = AXIS2_PLACEMENT_3D ( 'NONE', #8, #106, #206 ) ;
#60 = DIRECTION ( 'NONE',  ( 0.000000000000000000, 0.000000000000000000, 1.000000000000000000 ) ) ;
#61 = DIRECTION ( 'NONE',  ( 1.000000000000000000, 0.000000000000000000, 0.000000000000000000 ) ) ;
#62 = CYLINDRICAL_SURFACE ( 'NONE', #44, 16.00000000000000000 ) ;
#63 = TOROIDAL_SURFACE ( 'NONE', #80, 12.70000000000000107, 0.2000000000000000111 ) ;
#64 = DIRECTION ( 'NONE',  ( -1.000000000000000000, 1.224646799147353207E-16, 0.000000000000000000 ) ) ;
#65 = CC_DESIGN_PERSON_AND_ORGANIZATION_ASSIGNMENT ( #97, #216, ( #37 ) ) ;
#66 = ORIENTED_EDGE ( 'NONE', *, *, #276, .T. ) ;
#67 = PERSON_AND_ORGANIZATION_ROLE ( 'design_supplier' ) ;
#68 = ORIENTED_EDGE ( 'NONE', *, *, #94, .F. ) ;
#69 = PERSON_AND_ORGANIZATION_ROLE ( 'creator' ) ;
#70 = ORIENTED_EDGE ( 'NONE', *, *, #182, .T. ) ;
#71 = VECTOR ( 'NONE', #39, 1000.000000000000000 ) ;
#72 = EDGE_LOOP ( 'NONE', ( #22, #199, #49, #4 ) ) ;
#73 = EDGE_CURVE ( 'NONE', #241, #54, #167, .T. ) ;
#74 = ORIENTED_EDGE ( 'NONE', *, *, #251, .F. ) ;
#75 = AXIS2_PLACEMENT_3D ( 'NONE', #292, #29, #154 ) ;
#76 = VERTEX_POINT ( 'NONE', #307 ) ;
#77 = APPROVAL ( #202, 'NEURÈENÝ' ) ;
#78 = ORIENTED_EDGE ( 'NONE', *, *, #129, .F. ) ;
#79 = VERTEX_POINT ( 'NONE', #289 ) ;
#80 = AXIS2_PLACEMENT_3D ( 'NONE', #248, #38, #61 ) ;
#81 = VERTEX_POINT ( 'NONE', #224 ) ;
#82 = FACE_OUTER_BOUND ( 'NONE', #172, .T. ) ;
#83 = CC_DESIGN_PERSON_AND_ORGANIZATION_ASSIGNMENT ( #23, #69, ( #226 ) ) ;
#84 = ADVANCED_BREP_SHAPE_REPRESENTATION ( '4348', ( #10, #279 ), #112 ) ;
#85 = FACE_OUTER_BOUND ( 'NONE', #291, .T. ) ;
#86 = CARTESIAN_POINT ( 'NONE',  ( 12.50000000000000000, 1.530808498934191521E-15, 10.20000000000001528 ) ) ;
#87 = VECTOR ( 'NONE', #89, 1000.000000000000000 ) ;
#88 = APPROVAL ( #234, 'NEURÈENÝ' ) ;
#89 = DIRECTION ( 'NONE',  ( -0.000000000000000000, -0.000000000000000000, -1.000000000000000000 ) ) ;
#90 = DIRECTION ( 'NONE',  ( 0.000000000000000000, 0.000000000000000000, 1.000000000000000000 ) ) ;
#91 = PRODUCT_RELATED_PRODUCT_CATEGORY ( 'detail', '', ( #37 ) ) ;
#92 = APPROVAL_DATE_TIME ( #303, #15 ) ;
#93 = PERSON_AND_ORGANIZATION ( #304, #233 ) ;
#94 = EDGE_CURVE ( 'NONE', #42, #218, #221, .T. ) ;
#95 = CARTESIAN_POINT ( 'NONE',  ( 0.000000000000000000, 0.000000000000000000, 0.000000000000000000 ) ) ;
#96 = EDGE_LOOP ( 'NONE', ( #74, #195, #262, #263 ) ) ;
#97 = PERSON_AND_ORGANIZATION ( #304, #233 ) ;
#98 = VERTEX_POINT ( 'NONE', #265 ) ;
#99 = CALENDAR_DATE ( 2022, 7, 7 ) ;
#100 = ORIENTED_EDGE ( 'NONE', *, *, #149, .F. ) ;
#101 = LOCAL_TIME ( 11, 32, 30.00000000000000000, #163 ) ;
#102 = CARTESIAN_POINT ( 'NONE',  ( 0.000000000000000000, 0.000000000000000000, 10.20000000000001528 ) ) ;
#103 = CARTESIAN_POINT ( 'NONE',  ( 12.70000000000000107, 0.000000000000000000, 10.20000000000001528 ) ) ;
#104 = ORIENTED_EDGE ( 'NONE', *, *, #129, .T. ) ;
#105 = CC_DESIGN_APPROVAL ( #88, ( #226 ) ) ;
#106 = DIRECTION ( 'NONE',  ( 0.000000000000000000, 0.000000000000000000, 1.000000000000000000 ) ) ;
#107 = EDGE_CURVE ( 'NONE', #255, #218, #143, .T. ) ;
#108 = CARTESIAN_POINT ( 'NONE',  ( 0.000000000000000000, 0.000000000000000000, 10.00000000000000000 ) ) ;
#109 = FACE_BOUND ( 'NONE', #204, .T. ) ;
#110 = AXIS2_PLACEMENT_3D ( 'NONE', #40, #90, #211 ) ;
#111 = DIRECTION ( 'NONE',  ( -1.000000000000000000, 0.000000000000000000, 0.000000000000000000 ) ) ;
#112 =( GEOMETRIC_REPRESENTATION_CONTEXT ( 3 ) GLOBAL_UNCERTAINTY_ASSIGNED_CONTEXT ( ( #117 ) ) GLOBAL_UNIT_ASSIGNED_CONTEXT ( ( #46, #120, #287 ) ) REPRESENTATION_CONTEXT ( 'NONE', 'WORKASPACE' ) );
#113 = APPLICATION_CONTEXT ( 'configuration controlled 3d designs of mechanical parts and assemblies' ) ;
#114 = PLANE ( 'NONE',  #170 ) ;
#115 = DATE_AND_TIME ( #171, #156 ) ;
#116 = DIRECTION ( 'NONE',  ( 0.000000000000000000, 0.000000000000000000, 1.000000000000000000 ) ) ;
#117 = UNCERTAINTY_MEASURE_WITH_UNIT (LENGTH_MEASURE( 1.000000000000000082E-05 ), #46, 'distance_accuracy_value', 'NONE');
#118 = DIRECTION ( 'NONE',  ( 1.000000000000000000, 0.000000000000000000, 0.000000000000000000 ) ) ;
#119 = EDGE_LOOP ( 'NONE', ( #66, #104 ) ) ;
#120 =( NAMED_UNIT ( * ) PLANE_ANGLE_UNIT ( ) SI_UNIT ( $, .RADIAN. ) );
#121 = APPROVAL_DATE_TIME ( #32, #77 ) ;
#122 = CARTESIAN_POINT ( 'NONE',  ( 16.00000000000000000, 1.959434878635765131E-15, 10.00000000000000000 ) ) ;
#123 = ADVANCED_FACE ( 'NONE', ( #147 ), #239, .T. ) ;
#124 = DATE_AND_TIME ( #99, #19 ) ;
#125 = DIRECTION ( 'NONE',  ( -0.000000000000000000, -0.000000000000000000, -1.000000000000000000 ) ) ;
#126 = ORIENTED_EDGE ( 'NONE', *, *, #146, .F. ) ;
#127 = CLOSED_SHELL ( 'NONE', ( #268, #212, #164, #220, #250, #238, #123, #134, #165 ) ) ;
#128 = CC_DESIGN_SECURITY_CLASSIFICATION ( #162, ( #151 ) ) ;
#129 = EDGE_CURVE ( 'NONE', #47, #79, #7, .T. ) ;
#130 = DIRECTION ( 'NONE',  ( 1.000000000000000000, 0.000000000000000000, 0.000000000000000000 ) ) ;
#131 = SHAPE_DEFINITION_REPRESENTATION ( #34, #84 ) ;
#132 = CARTESIAN_POINT ( 'NONE',  ( 0.000000000000000000, 0.000000000000000000, 10.00000000000000000 ) ) ;
#133 = DIRECTION ( 'NONE',  ( 1.000000000000000000, 0.000000000000000000, 0.000000000000000000 ) ) ;
#134 = ADVANCED_FACE ( 'NONE', ( #245 ), #249, .T. ) ;
#135 = EDGE_CURVE ( 'NONE', #98, #81, #209, .T. ) ;
#136 = DIRECTION ( 'NONE',  ( -1.000000000000000000, 0.000000000000000000, 0.000000000000000000 ) ) ;
#137 = CARTESIAN_POINT ( 'NONE',  ( 12.50000000000000000, 1.530808498934191521E-15, 170.0000000000000000 ) ) ;
#138 = CARTESIAN_POINT ( 'NONE',  ( 0.000000000000000000, 0.000000000000000000, 10.00000000000000000 ) ) ;
#139 = DESIGN_CONTEXT ( 'detailed design', #113, 'design' ) ;
#140 = FACE_OUTER_BOUND ( 'NONE', #290, .T. ) ;
#141 = DIRECTION ( 'NONE',  ( 0.000000000000000000, 0.000000000000000000, 1.000000000000000000 ) ) ;
#142 = ORIENTED_EDGE ( 'NONE', *, *, #107, .F. ) ;
#143 = CIRCLE ( 'NONE', #160, 12.50000000000000000 ) ;
#144 = SECURITY_CLASSIFICATION_LEVEL ( 'unclassified' ) ;
#145 = APPLICATION_CONTEXT ( 'configuration controlled 3d designs of mechanical parts and assemblies' ) ;
#146 = EDGE_CURVE ( 'NONE', #76, #42, #259, .T. ) ;
#147 = FACE_OUTER_BOUND ( 'NONE', #72, .T. ) ;
#148 = ORIENTED_EDGE ( 'NONE', *, *, #251, .T. ) ;
#149 = EDGE_CURVE ( 'NONE', #79, #98, #184, .T. ) ;
#150 = ORIENTED_EDGE ( 'NONE', *, *, #28, .T. ) ;
#151 = PRODUCT_DEFINITION_FORMATION_WITH_SPECIFIED_SOURCE ( 'LIBOVOLNÝ', '', #37, .NOT_KNOWN. ) ;
#152 = COORDINATED_UNIVERSAL_TIME_OFFSET ( 1, 0, .AHEAD. ) ;
#153 = ORIENTED_EDGE ( 'NONE', *, *, #24, .T. ) ;
#154 = DIRECTION ( 'NONE',  ( 1.000000000000000000, 0.000000000000000000, 0.000000000000000000 ) ) ;
#155 = CARTESIAN_POINT ( 'NONE',  ( 0.000000000000000000, 0.000000000000000000, 170.0000000000000000 ) ) ;
#156 = LOCAL_TIME ( 11, 32, 30.00000000000000000, #213 ) ;
#157 = DIRECTION ( 'NONE',  ( -0.000000000000000000, -0.000000000000000000, -1.000000000000000000 ) ) ;
#158 = CARTESIAN_POINT ( 'NONE',  ( 0.000000000000000000, 0.000000000000000000, 0.000000000000000000 ) ) ;
#159 = DIRECTION ( 'NONE',  ( 0.000000000000000000, 0.000000000000000000, 1.000000000000000000 ) ) ;
#160 = AXIS2_PLACEMENT_3D ( 'NONE', #6, #225, #173 ) ;
#161 = DATE_AND_TIME ( #168, #101 ) ;
#162 = SECURITY_CLASSIFICATION ( '', '', #144 ) ;
#163 = COORDINATED_UNIVERSAL_TIME_OFFSET ( 1, 0, .AHEAD. ) ;
#164 = ADVANCED_FACE ( 'NONE', ( #85 ), #62, .T. ) ;
#165 = ADVANCED_FACE ( 'NONE', ( #140 ), #63, .F. ) ;
#166 = CARTESIAN_POINT ( 'NONE',  ( -12.70000000000000107, 1.555301434917138630E-15, 10.20000000000001528 ) ) ;
#167 = CIRCLE ( 'NONE', #190, 12.70000000000000107 ) ;
#168 = CALENDAR_DATE ( 2022, 7, 7 ) ;
#169 = ORIENTED_EDGE ( 'NONE', *, *, #270, .F. ) ;
#170 = AXIS2_PLACEMENT_3D ( 'NONE', #158, #207, #297 ) ;
#171 = CALENDAR_DATE ( 2022, 7, 7 ) ;
#172 = EDGE_LOOP ( 'NONE', ( #50, #33, #169, #222 ) ) ;
#173 = DIRECTION ( 'NONE',  ( 1.000000000000000000, 0.000000000000000000, 0.000000000000000000 ) ) ;
#174 = CIRCLE ( 'NONE', #75, 16.00000000000000000 ) ;
#175 = CIRCLE ( 'NONE', #266, 16.00000000000000000 ) ;
#176 = EDGE_LOOP ( 'NONE', ( #70, #181 ) ) ;
#177 = EDGE_LOOP ( 'NONE', ( #126, #25, #31, #68 ) ) ;
#178 = CALENDAR_DATE ( 2022, 7, 7 ) ;
#179 = DIRECTION ( 'NONE',  ( -0.000000000000000000, -0.000000000000000000, -1.000000000000000000 ) ) ;
#180 = AXIS2_PLACEMENT_3D ( 'NONE', #166, #16, #64 ) ;
#181 = ORIENTED_EDGE ( 'NONE', *, *, #146, .T. ) ;
#182 = EDGE_CURVE ( 'NONE', #42, #76, #223, .T. ) ;
#183 = CC_DESIGN_PERSON_AND_ORGANIZATION_ASSIGNMENT ( #305, #196, ( #162 ) ) ;
#184 = LINE ( 'NONE', #187, #185 ) ;
#185 = VECTOR ( 'NONE', #13, 1000.000000000000000 ) ;
#186 = DIRECTION ( 'NONE',  ( 0.000000000000000000, 0.000000000000000000, 1.000000000000000000 ) ) ;
#187 = CARTESIAN_POINT ( 'NONE',  ( -16.00000000000000000, 0.000000000000000000, 10.00000000000000000 ) ) ;
#188 = CARTESIAN_POINT ( 'NONE',  ( 0.000000000000000000, 0.000000000000000000, 170.0000000000000000 ) ) ;
#189 = EDGE_CURVE ( 'NONE', #76, #255, #247, .T. ) ;
#190 = AXIS2_PLACEMENT_3D ( 'NONE', #132, #52, #130 ) ;
#191 = APPROVAL_ROLE ( '' ) ;
#192 = PERSON_AND_ORGANIZATION_ROLE ( 'creator' ) ;
#193 = CC_DESIGN_DATE_AND_TIME_ASSIGNMENT ( #124, #260, ( #162 ) ) ;
#194 = PERSON_AND_ORGANIZATION ( #304, #233 ) ;
#195 = ORIENTED_EDGE ( 'NONE', *, *, #276, .F. ) ;
#196 = PERSON_AND_ORGANIZATION_ROLE ( 'classification_officer' ) ;
#197 = CARTESIAN_POINT ( 'NONE',  ( -12.50000000000000000, 0.000000000000000000, 170.0000000000000000 ) ) ;
#198 = AXIS2_PLACEMENT_3D ( 'NONE', #102, #243, #201 ) ;
#199 = ORIENTED_EDGE ( 'NONE', *, *, #182, .F. ) ;
#200 = AXIS2_PLACEMENT_3D ( 'NONE', #138, #11, #111 ) ;
#201 = DIRECTION ( 'NONE',  ( 1.000000000000000000, 0.000000000000000000, 0.000000000000000000 ) ) ;
#202 = APPROVAL_STATUS ( 'not_yet_approved' ) ;
#203 = CARTESIAN_POINT ( 'NONE',  ( -12.50000000000000000, 0.000000000000000000, 170.0000000000000000 ) ) ;
#204 = EDGE_LOOP ( 'NONE', ( #267, #5 ) ) ;
#205 = LOCAL_TIME ( 11, 32, 30.00000000000000000, #45 ) ;
#206 = DIRECTION ( 'NONE',  ( 1.000000000000000000, 0.000000000000000000, -0.000000000000000000 ) ) ;
#207 = DIRECTION ( 'NONE',  ( 0.000000000000000000, 0.000000000000000000, 1.000000000000000000 ) ) ;
#208 = PLANE ( 'NONE',  #59 ) ;
#209 = CIRCLE ( 'NONE', #110, 16.00000000000000000 ) ;
#210 = FACE_OUTER_BOUND ( 'NONE', #119, .T. ) ;
#211 = DIRECTION ( 'NONE',  ( 1.000000000000000000, 0.000000000000000000, 0.000000000000000000 ) ) ;
#212 = ADVANCED_FACE ( 'NONE', ( #231 ), #12, .T. ) ;
#213 = COORDINATED_UNIVERSAL_TIME_OFFSET ( 1, 0, .AHEAD. ) ;
#214 = AXIS2_PLACEMENT_3D ( 'NONE', #230, #159, #244 ) ;
#215 = DIRECTION ( 'NONE',  ( 1.000000000000000000, 0.000000000000000000, 0.000000000000000000 ) ) ;
#216 = PERSON_AND_ORGANIZATION_ROLE ( 'design_owner' ) ;
#217 = DIRECTION ( 'NONE',  ( 0.000000000000000000, 0.000000000000000000, 1.000000000000000000 ) ) ;
#218 = VERTEX_POINT ( 'NONE', #35 ) ;
#219 = CARTESIAN_POINT ( 'NONE',  ( 12.70000000000000107, 0.000000000000000000, 10.00000000000000711 ) ) ;
#220 = ADVANCED_FACE ( 'NONE', ( #298 ), #36, .T. ) ;
#221 = LINE ( 'NONE', #203, #272 ) ;
#222 = ORIENTED_EDGE ( 'NONE', *, *, #24, .F. ) ;
#223 = CIRCLE ( 'NONE', #214, 12.50000000000000000 ) ;
#224 = CARTESIAN_POINT ( 'NONE',  ( 16.00000000000000000, 1.959434878635765131E-15, 0.000000000000000000 ) ) ;
#225 = DIRECTION ( 'NONE',  ( 0.000000000000000000, 0.000000000000000000, 1.000000000000000000 ) ) ;
#226 = PRODUCT_DEFINITION ( 'NEZNÁMÝ', '', #151, #139 ) ;
#227 = CARTESIAN_POINT ( 'NONE',  ( -12.70000000000000107, 1.555301434917138630E-15, 10.00000000000000711 ) ) ;
#228 = AXIS2_PLACEMENT_3D ( 'NONE', #277, #186, #271 ) ;
#229 = CC_DESIGN_APPROVAL ( #15, ( #151 ) ) ;
#230 = CARTESIAN_POINT ( 'NONE',  ( 0.000000000000000000, 0.000000000000000000, 170.0000000000000000 ) ) ;
#231 = FACE_OUTER_BOUND ( 'NONE', #177, .T. ) ;
#232 = DIRECTION ( 'NONE',  ( 0.000000000000000000, 0.000000000000000000, 1.000000000000000000 ) ) ;
#233 = ORGANIZATION ( 'NEURÈENÝ', 'NEURÈENÝ', '' ) ;
#234 = APPROVAL_STATUS ( 'not_yet_approved' ) ;
#235 = CC_DESIGN_PERSON_AND_ORGANIZATION_ASSIGNMENT ( #282, #67, ( #151 ) ) ;
#236 = DATE_TIME_ROLE ( 'creation_date' ) ;
#237 = APPROVAL_PERSON_ORGANIZATION ( #51, #77, #26 ) ;
#238 = ADVANCED_FACE ( 'NONE', ( #14 ), #114, .F. ) ;
#239 = CYLINDRICAL_SURFACE ( 'NONE', #43, 12.50000000000000000 ) ;
#240 = DIRECTION ( 'NONE',  ( 0.000000000000000000, -1.000000000000000000, 0.000000000000000000 ) ) ;
#241 = VERTEX_POINT ( 'NONE', #227 ) ;
#242 = AXIS2_PLACEMENT_3D ( 'NONE', #188, #275, #300 ) ;
#243 = DIRECTION ( 'NONE',  ( 0.000000000000000000, 0.000000000000000000, 1.000000000000000000 ) ) ;
#244 = DIRECTION ( 'NONE',  ( 1.000000000000000000, 0.000000000000000000, 0.000000000000000000 ) ) ;
#245 = FACE_OUTER_BOUND ( 'NONE', #176, .T. ) ;
#246 = AXIS2_PLACEMENT_3D ( 'NONE', #269, #41, #252 ) ;
#247 = LINE ( 'NONE', #137, #71 ) ;
#248 = CARTESIAN_POINT ( 'NONE',  ( 0.000000000000000000, 0.000000000000000000, 10.20000000000001528 ) ) ;
#249 = PLANE ( 'NONE',  #228 ) ;
#250 = ADVANCED_FACE ( 'NONE', ( #109, #210 ), #208, .T. ) ;
#251 = EDGE_CURVE ( 'NONE', #47, #81, #296, .T. ) ;
#252 = DIRECTION ( 'NONE',  ( 1.000000000000000000, 0.000000000000000000, 0.000000000000000000 ) ) ;
#253 = APPROVAL_PERSON_ORGANIZATION ( #93, #88, #288 ) ;
#254 = APPROVAL_STATUS ( 'not_yet_approved' ) ;
#255 = VERTEX_POINT ( 'NONE', #86 ) ;
#256 = APPLICATION_PROTOCOL_DEFINITION ( 'international standard', 'config_control_design', 1994, #113 ) ;
#257 = ORIENTED_EDGE ( 'NONE', *, *, #73, .F. ) ;
#258 = CC_DESIGN_PERSON_AND_ORGANIZATION_ASSIGNMENT ( #280, #192, ( #151 ) ) ;
#259 = CIRCLE ( 'NONE', #3, 12.50000000000000000 ) ;
#260 = DATE_TIME_ROLE ( 'classification_date' ) ;
#261 = AXIS2_PLACEMENT_3D ( 'NONE', #56, #141, #215 ) ;
#262 = ORIENTED_EDGE ( 'NONE', *, *, #149, .T. ) ;
#263 = ORIENTED_EDGE ( 'NONE', *, *, #135, .T. ) ;
#264 = ORIENTED_EDGE ( 'NONE', *, *, #28, .F. ) ;
#265 = CARTESIAN_POINT ( 'NONE',  ( -16.00000000000000000, 0.000000000000000000, 0.000000000000000000 ) ) ;
#266 = AXIS2_PLACEMENT_3D ( 'NONE', #21, #217, #118 ) ;
#267 = ORIENTED_EDGE ( 'NONE', *, *, #270, .T. ) ;
#268 = ADVANCED_FACE ( 'NONE', ( #82 ), #286, .F. ) ;
#269 = CARTESIAN_POINT ( 'NONE',  ( 0.000000000000000000, 0.000000000000000000, 10.00000000000000000 ) ) ;
#270 = EDGE_CURVE ( 'NONE', #54, #241, #302, .T. ) ;
#271 = DIRECTION ( 'NONE',  ( 1.000000000000000000, 0.000000000000000000, -0.000000000000000000 ) ) ;
#272 = VECTOR ( 'NONE', #179, 1000.000000000000000 ) ;
#273 = APPROVAL_PERSON_ORGANIZATION ( #194, #15, #191 ) ;
#274 = CARTESIAN_POINT ( 'NONE',  ( 0.000000000000000000, 0.000000000000000000, 10.00000000000000000 ) ) ;
#275 = DIRECTION ( 'NONE',  ( -0.000000000000000000, -0.000000000000000000, -1.000000000000000000 ) ) ;
#276 = EDGE_CURVE ( 'NONE', #79, #47, #175, .T. ) ;
#277 = CARTESIAN_POINT ( 'NONE',  ( 0.000000000000000000, 0.000000000000000000, 170.0000000000000000 ) ) ;
#278 = LOCAL_TIME ( 11, 32, 30.00000000000000000, #152 ) ;
#279 = AXIS2_PLACEMENT_3D ( 'NONE', #95, #116, #18 ) ;
#280 = PERSON_AND_ORGANIZATION ( #304, #233 ) ;
#281 = EDGE_LOOP ( 'NONE', ( #285, #264 ) ) ;
#282 = PERSON_AND_ORGANIZATION ( #304, #233 ) ;
#283 = EDGE_CURVE ( 'NONE', #218, #241, #30, .T. ) ;
#284 = APPLICATION_PROTOCOL_DEFINITION ( 'international standard', 'config_control_design', 1994, #145 ) ;
#285 = ORIENTED_EDGE ( 'NONE', *, *, #135, .F. ) ;
#286 = TOROIDAL_SURFACE ( 'NONE', #261, 12.70000000000000107, 0.2000000000000000111 ) ;
#287 =( NAMED_UNIT ( * ) SI_UNIT ( $, .STERADIAN. ) SOLID_ANGLE_UNIT ( ) );
#288 = APPROVAL_ROLE ( '' ) ;
#289 = CARTESIAN_POINT ( 'NONE',  ( -16.00000000000000000, 0.000000000000000000, 10.00000000000000000 ) ) ;
#290 = EDGE_LOOP ( 'NONE', ( #294, #142, #153, #257 ) ) ;
#291 = EDGE_LOOP ( 'NONE', ( #78, #148, #150, #100 ) ) ;
#292 = CARTESIAN_POINT ( 'NONE',  ( 0.000000000000000000, 0.000000000000000000, 0.000000000000000000 ) ) ;
#293 = CIRCLE ( 'NONE', #198, 12.50000000000000000 ) ;
#294 = ORIENTED_EDGE ( 'NONE', *, *, #283, .F. ) ;
#295 = CC_DESIGN_DATE_AND_TIME_ASSIGNMENT ( #161, #236, ( #226 ) ) ;
#296 = LINE ( 'NONE', #299, #87 ) ;
#297 = DIRECTION ( 'NONE',  ( 1.000000000000000000, 0.000000000000000000, -0.000000000000000000 ) ) ;
#298 = FACE_OUTER_BOUND ( 'NONE', #96, .T. ) ;
#299 = CARTESIAN_POINT ( 'NONE',  ( 16.00000000000000000, 1.959434878635765131E-15, 10.00000000000000000 ) ) ;
#300 = DIRECTION ( 'NONE',  ( -1.000000000000000000, 0.000000000000000000, 0.000000000000000000 ) ) ;
#301 = CALENDAR_DATE ( 2022, 7, 7 ) ;
#302 = CIRCLE ( 'NONE', #246, 12.70000000000000107 ) ;
#303 = DATE_AND_TIME ( #301, #205 ) ;
#304 = PERSON ( 'NEURÈENÝ', 'NEURÈENÝ', 'NEURÈENÝ', ('NEURÈENÝ'), ('NEURÈENÝ'), ('NEURÈENÝ') ) ;
#305 = PERSON_AND_ORGANIZATION ( #304, #233 ) ;
#306 = MECHANICAL_CONTEXT ( 'NONE', #145, 'mechanical' ) ;
#307 = CARTESIAN_POINT ( 'NONE',  ( 12.50000000000000000, 1.530808498934191521E-15, 170.0000000000000000 ) ) ;
ENDSEC;
END-ISO-10303-21;
