ISO-10303-21;
HEADER;
FILE_DESCRIPTION (( 'STEP AP203' ),
    '1' );
FILE_NAME ('4dbe.STEP',
    '2022-07-07T09:40:52',
    ( '' ),
    ( '' ),
    'SwSTEP 2.0',
    'SolidWorks 2019',
    '' );
FILE_SCHEMA (( 'CONFIG_CONTROL_DESIGN' ));
ENDSEC;

DATA;
#1 = VERTEX_POINT ( 'NONE', #287 ) ;
#2 = CARTESIAN_POINT ( 'NONE',  ( 7.200000000000001066, 0.000000000000000000, 7.200000000000011724 ) ) ;
#3 = CIRCLE ( 'NONE', #146, 11.00000000000000000 ) ;
#4 = CC_DESIGN_PERSON_AND_ORGANIZATION_ASSIGNMENT ( #14, #307, ( #228 ) ) ;
#5 = ORIENTED_EDGE ( 'NONE', *, *, #175, .F. ) ;
#6 = EDGE_LOOP ( 'NONE', ( #157, #47, #59, #94 ) ) ;
#7 = DATE_TIME_ROLE ( 'classification_date' ) ;
#8 = VERTEX_POINT ( 'NONE', #100 ) ;
#9 = VECTOR ( 'NONE', #142, 1000.000000000000000 ) ;
#10 = AXIS2_PLACEMENT_3D ( 'NONE', #2, #200, #150 ) ;
#11 = VERTEX_POINT ( 'NONE', #221 ) ;
#12 = PERSON_AND_ORGANIZATION_ROLE ( 'classification_officer' ) ;
#13 = EDGE_CURVE ( 'NONE', #131, #155, #53, .T. ) ;
#14 = PERSON_AND_ORGANIZATION ( #224, #184 ) ;
#15 = DIRECTION ( 'NONE',  ( -1.000000000000000000, 0.000000000000000000, 0.000000000000000000 ) ) ;
#16 = AXIS2_PLACEMENT_3D ( 'NONE', #302, #90, #282 ) ;
#17 = APPLICATION_PROTOCOL_DEFINITION ( 'international standard', 'config_control_design', 1994, #32 ) ;
#18 = CARTESIAN_POINT ( 'NONE',  ( 0.000000000000000000, 0.000000000000000000, 7.000000000000000000 ) ) ;
#19 = SECURITY_CLASSIFICATION ( '', '', #265 ) ;
#20 = EDGE_CURVE ( 'NONE', #1, #35, #293, .T. ) ;
#21 = FACE_OUTER_BOUND ( 'NONE', #23, .T. ) ;
#22 = DIRECTION ( 'NONE',  ( 1.000000000000000000, 0.000000000000000000, 0.000000000000000000 ) ) ;
#23 = EDGE_LOOP ( 'NONE', ( #123, #291 ) ) ;
#24 = CARTESIAN_POINT ( 'NONE',  ( -11.00000000000000000, 0.000000000000000000, 7.000000000000000000 ) ) ;
#25 = AXIS2_PLACEMENT_3D ( 'NONE', #119, #303, #93 ) ;
#26 = APPROVAL_PERSON_ORGANIZATION ( #89, #80, #182 ) ;
#27 = DIRECTION ( 'NONE',  ( 1.000000000000000000, 0.000000000000000000, 0.000000000000000000 ) ) ;
#28 = DIRECTION ( 'NONE',  ( 1.000000000000000000, 0.000000000000000000, 0.000000000000000000 ) ) ;
#29 = APPROVAL ( #113, 'NEURÈENÝ' ) ;
#30 = DIRECTION ( 'NONE',  ( 0.000000000000000000, 0.000000000000000000, 1.000000000000000000 ) ) ;
#31 = APPROVAL_PERSON_ORGANIZATION ( #162, #29, #255 ) ;
#32 = APPLICATION_CONTEXT ( 'configuration controlled 3d designs of mechanical parts and assemblies' ) ;
#33 = DIRECTION ( 'NONE',  ( -0.000000000000000000, -0.000000000000000000, -1.000000000000000000 ) ) ;
#34 = PERSON_AND_ORGANIZATION ( #224, #184 ) ;
#35 = VERTEX_POINT ( 'NONE', #191 ) ;
#36 = EDGE_LOOP ( 'NONE', ( #176, #105, #284, #246 ) ) ;
#37 = CIRCLE ( 'NONE', #10, 0.1999999999999996503 ) ;
#38 = ADVANCED_FACE ( 'NONE', ( #170 ), #58, .T. ) ;
#39 = PERSON_AND_ORGANIZATION ( #224, #184 ) ;
#40 = DIRECTION ( 'NONE',  ( 1.000000000000000000, 0.000000000000000000, 0.000000000000000000 ) ) ;
#41 = CIRCLE ( 'NONE', #201, 11.00000000000000000 ) ;
#42 = DIRECTION ( 'NONE',  ( 0.000000000000000000, 0.000000000000000000, 1.000000000000000000 ) ) ;
#43 =( GEOMETRIC_REPRESENTATION_CONTEXT ( 3 ) GLOBAL_UNCERTAINTY_ASSIGNED_CONTEXT ( ( #111 ) ) GLOBAL_UNIT_ASSIGNED_CONTEXT ( ( #139, #161, #211 ) ) REPRESENTATION_CONTEXT ( 'NONE', 'WORKASPACE' ) );
#44 = CARTESIAN_POINT ( 'NONE',  ( 7.200000000000001066, 0.000000000000000000, 7.000000000000006217 ) ) ;
#45 = CC_DESIGN_PERSON_AND_ORGANIZATION_ASSIGNMENT ( #91, #252, ( #88 ) ) ;
#46 = PLANE ( 'NONE',  #16 ) ;
#47 = ORIENTED_EDGE ( 'NONE', *, *, #169, .T. ) ;
#48 = VECTOR ( 'NONE', #65, 1000.000000000000000 ) ;
#49 = CARTESIAN_POINT ( 'NONE',  ( 0.000000000000000000, 0.000000000000000000, 7.000000000000000000 ) ) ;
#50 = DIRECTION ( 'NONE',  ( 1.224646799147353207E-16, 1.000000000000000000, -0.000000000000000000 ) ) ;
#51 = EDGE_LOOP ( 'NONE', ( #5, #248, #235, #118 ) ) ;
#52 = APPROVAL_DATE_TIME ( #219, #259 ) ;
#53 = CIRCLE ( 'NONE', #225, 7.200000000000001066 ) ;
#54 = ORIENTED_EDGE ( 'NONE', *, *, #279, .F. ) ;
#55 = CALENDAR_DATE ( 2022, 7, 7 ) ;
#56 = CYLINDRICAL_SURFACE ( 'NONE', #281, 7.000000000000000888 ) ;
#57 = PERSON_AND_ORGANIZATION_ROLE ( 'design_supplier' ) ;
#58 = CYLINDRICAL_SURFACE ( 'NONE', #172, 11.00000000000000000 ) ;
#59 = ORIENTED_EDGE ( 'NONE', *, *, #305, .T. ) ;
#60 = EDGE_CURVE ( 'NONE', #212, #98, #301, .T. ) ;
#61 = CIRCLE ( 'NONE', #104, 0.1999999999999996503 ) ;
#62 = CARTESIAN_POINT ( 'NONE',  ( 0.000000000000000000, 0.000000000000000000, 0.000000000000000000 ) ) ;
#63 = FACE_OUTER_BOUND ( 'NONE', #36, .T. ) ;
#64 = CALENDAR_DATE ( 2022, 7, 7 ) ;
#65 = DIRECTION ( 'NONE',  ( -0.000000000000000000, -0.000000000000000000, -1.000000000000000000 ) ) ;
#66 = CARTESIAN_POINT ( 'NONE',  ( 0.000000000000000000, 0.000000000000000000, 0.000000000000000000 ) ) ;
#67 = DIRECTION ( 'NONE',  ( 0.000000000000000000, 0.000000000000000000, 1.000000000000000000 ) ) ;
#68 = EDGE_CURVE ( 'NONE', #8, #81, #41, .T. ) ;
#69 = CYLINDRICAL_SURFACE ( 'NONE', #110, 11.00000000000000000 ) ;
#70 = EDGE_LOOP ( 'NONE', ( #125, #233 ) ) ;
#71 = AXIS2_PLACEMENT_3D ( 'NONE', #222, #107, #109 ) ;
#72 = CLOSED_SHELL ( 'NONE', ( #272, #96, #38, #223, #166, #156, #115, #126, #215 ) ) ;
#73 = AXIS2_PLACEMENT_3D ( 'NONE', #66, #286, #40 ) ;
#74 = CC_DESIGN_APPROVAL ( #29, ( #164 ) ) ;
#75 = DIRECTION ( 'NONE',  ( -0.000000000000000000, -0.000000000000000000, -1.000000000000000000 ) ) ;
#76 = SHAPE_DEFINITION_REPRESENTATION ( #226, #178 ) ;
#77 = DIRECTION ( 'NONE',  ( -0.000000000000000000, -0.000000000000000000, -1.000000000000000000 ) ) ;
#78 = MANIFOLD_SOLID_BREP ( 'Zaoblit1', #72 ) ;
#79 = DIRECTION ( 'NONE',  ( -0.000000000000000000, -0.000000000000000000, -1.000000000000000000 ) ) ;
#80 = APPROVAL ( #86, 'NEURÈENÝ' ) ;
#81 = VERTEX_POINT ( 'NONE', #266 ) ;
#82 = DIRECTION ( 'NONE',  ( -1.000000000000000000, 0.000000000000000000, 0.000000000000000000 ) ) ;
#83 = EDGE_CURVE ( 'NONE', #11, #270, #127, .T. ) ;
#84 = AXIS2_PLACEMENT_3D ( 'NONE', #171, #264, #292 ) ;
#85 = CARTESIAN_POINT ( 'NONE',  ( 0.000000000000000000, 0.000000000000000000, 257.0000000000000000 ) ) ;
#86 = APPROVAL_STATUS ( 'not_yet_approved' ) ;
#87 = CIRCLE ( 'NONE', #25, 7.200000000000001066 ) ;
#88 = PRODUCT_DEFINITION_FORMATION_WITH_SPECIFIED_SOURCE ( 'LIBOVOLNÝ', '', #228, .NOT_KNOWN. ) ;
#89 = PERSON_AND_ORGANIZATION ( #224, #184 ) ;
#90 = DIRECTION ( 'NONE',  ( 0.000000000000000000, 0.000000000000000000, 1.000000000000000000 ) ) ;
#91 = PERSON_AND_ORGANIZATION ( #224, #184 ) ;
#92 = ORIENTED_EDGE ( 'NONE', *, *, #138, .F. ) ;
#93 = DIRECTION ( 'NONE',  ( 1.000000000000000000, 0.000000000000000000, 0.000000000000000000 ) ) ;
#94 = ORIENTED_EDGE ( 'NONE', *, *, #195, .F. ) ;
#95 = COORDINATED_UNIVERSAL_TIME_OFFSET ( 1, 0, .AHEAD. ) ;
#96 = ADVANCED_FACE ( 'NONE', ( #173 ), #56, .T. ) ;
#97 = AXIS2_PLACEMENT_3D ( 'NONE', #149, #239, #181 ) ;
#98 = VERTEX_POINT ( 'NONE', #202 ) ;
#99 = CC_DESIGN_APPROVAL ( #80, ( #88 ) ) ;
#100 = CARTESIAN_POINT ( 'NONE',  ( -11.00000000000000000, 0.000000000000000000, 7.000000000000000000 ) ) ;
#101 = ORIENTED_EDGE ( 'NONE', *, *, #203, .T. ) ;
#102 = CIRCLE ( 'NONE', #160, 7.000000000000000888 ) ;
#103 = ORIENTED_EDGE ( 'NONE', *, *, #195, .T. ) ;
#104 = AXIS2_PLACEMENT_3D ( 'NONE', #230, #50, #122 ) ;
#105 = ORIENTED_EDGE ( 'NONE', *, *, #189, .F. ) ;
#106 = COORDINATED_UNIVERSAL_TIME_OFFSET ( 1, 0, .AHEAD. ) ;
#107 = DIRECTION ( 'NONE',  ( -0.000000000000000000, -0.000000000000000000, -1.000000000000000000 ) ) ;
#108 = CC_DESIGN_PERSON_AND_ORGANIZATION_ASSIGNMENT ( #294, #57, ( #88 ) ) ;
#109 = DIRECTION ( 'NONE',  ( -1.000000000000000000, 0.000000000000000000, 0.000000000000000000 ) ) ;
#110 = AXIS2_PLACEMENT_3D ( 'NONE', #18, #206, #263 ) ;
#111 = UNCERTAINTY_MEASURE_WITH_UNIT (LENGTH_MEASURE( 1.000000000000000082E-05 ), #139, 'distance_accuracy_value', 'NONE');
#112 = DATE_TIME_ROLE ( 'creation_date' ) ;
#113 = APPROVAL_STATUS ( 'not_yet_approved' ) ;
#114 = CARTESIAN_POINT ( 'NONE',  ( 0.000000000000000000, 0.000000000000000000, 257.0000000000000000 ) ) ;
#115 = ADVANCED_FACE ( 'NONE', ( #63 ), #177, .T. ) ;
#116 = DATE_AND_TIME ( #64, #273 ) ;
#117 = DIRECTION ( 'NONE',  ( 0.000000000000000000, 0.000000000000000000, 1.000000000000000000 ) ) ;
#118 = ORIENTED_EDGE ( 'NONE', *, *, #20, .F. ) ;
#119 = CARTESIAN_POINT ( 'NONE',  ( 0.000000000000000000, 0.000000000000000000, 7.000000000000000000 ) ) ;
#120 = DIRECTION ( 'NONE',  ( 1.000000000000000000, 0.000000000000000000, -0.000000000000000000 ) ) ;
#121 = CC_DESIGN_PERSON_AND_ORGANIZATION_ASSIGNMENT ( #34, #12, ( #19 ) ) ;
#122 = DIRECTION ( 'NONE',  ( -1.000000000000000000, 1.224646799147358384E-16, 0.000000000000000000 ) ) ;
#123 = ORIENTED_EDGE ( 'NONE', *, *, #60, .F. ) ;
#124 = AXIS2_PLACEMENT_3D ( 'NONE', #114, #117, #207 ) ;
#125 = ORIENTED_EDGE ( 'NONE', *, *, #189, .T. ) ;
#126 = ADVANCED_FACE ( 'NONE', ( #133 ), #274, .T. ) ;
#127 = LINE ( 'NONE', #218, #130 ) ;
#128 = DATE_AND_TIME ( #247, #148 ) ;
#129 = ORIENTED_EDGE ( 'NONE', *, *, #267, .F. ) ;
#130 = VECTOR ( 'NONE', #79, 1000.000000000000000 ) ;
#131 = VERTEX_POINT ( 'NONE', #147 ) ;
#132 = CC_DESIGN_PERSON_AND_ORGANIZATION_ASSIGNMENT ( #39, #135, ( #164 ) ) ;
#133 = FACE_OUTER_BOUND ( 'NONE', #70, .T. ) ;
#134 = DIRECTION ( 'NONE',  ( 0.000000000000000000, 0.000000000000000000, 1.000000000000000000 ) ) ;
#135 = PERSON_AND_ORGANIZATION_ROLE ( 'creator' ) ;
#136 = APPLICATION_PROTOCOL_DEFINITION ( 'international standard', 'config_control_design', 1994, #262 ) ;
#137 = CARTESIAN_POINT ( 'NONE',  ( 0.000000000000000000, 0.000000000000000000, 7.200000000000011724 ) ) ;
#138 = EDGE_CURVE ( 'NONE', #35, #270, #102, .T. ) ;
#139 =( LENGTH_UNIT ( ) NAMED_UNIT ( * ) SI_UNIT ( .MILLI., .METRE. ) );
#140 = APPROVAL_PERSON_ORGANIZATION ( #271, #259, #243 ) ;
#141 = CARTESIAN_POINT ( 'NONE',  ( 11.00000000000000000, 1.347111479062088405E-15, 7.000000000000000000 ) ) ;
#142 = DIRECTION ( 'NONE',  ( -0.000000000000000000, -0.000000000000000000, -1.000000000000000000 ) ) ;
#143 = LINE ( 'NONE', #24, #48 ) ;
#144 = ORIENTED_EDGE ( 'NONE', *, *, #279, .T. ) ;
#145 = CC_DESIGN_DATE_AND_TIME_ASSIGNMENT ( #128, #7, ( #19 ) ) ;
#146 = AXIS2_PLACEMENT_3D ( 'NONE', #49, #167, #28 ) ;
#147 = CARTESIAN_POINT ( 'NONE',  ( -7.200000000000001066, 8.817456953860944275E-16, 7.000000000000006217 ) ) ;
#148 = LOCAL_TIME ( 11, 40, 52.00000000000000000, #106 ) ;
#149 = CARTESIAN_POINT ( 'NONE',  ( 0.000000000000000000, 0.000000000000000000, 7.200000000000011724 ) ) ;
#150 = DIRECTION ( 'NONE',  ( 0.000000000000000000, 0.000000000000000000, -1.000000000000000000 ) ) ;
#151 = EDGE_LOOP ( 'NONE', ( #174, #217, #103, #208 ) ) ;
#152 = ORIENTED_EDGE ( 'NONE', *, *, #68, .T. ) ;
#153 = COORDINATED_UNIVERSAL_TIME_OFFSET ( 1, 0, .AHEAD. ) ;
#154 = ORIENTED_EDGE ( 'NONE', *, *, #289, .T. ) ;
#155 = VERTEX_POINT ( 'NONE', #44 ) ;
#156 = ADVANCED_FACE ( 'NONE', ( #21 ), #209, .F. ) ;
#157 = ORIENTED_EDGE ( 'NONE', *, *, #240, .F. ) ;
#158 = TOROIDAL_SURFACE ( 'NONE', #250, 7.200000000000001066, 0.2000000000000000111 ) ;
#159 = LOCAL_TIME ( 11, 40, 52.00000000000000000, #153 ) ;
#160 = AXIS2_PLACEMENT_3D ( 'NONE', #185, #67, #27 ) ;
#161 =( NAMED_UNIT ( * ) PLANE_ANGLE_UNIT ( ) SI_UNIT ( $, .RADIAN. ) );
#162 = PERSON_AND_ORGANIZATION ( #224, #184 ) ;
#163 = DATE_AND_TIME ( #229, #216 ) ;
#164 = PRODUCT_DEFINITION ( 'NEZNÁMÝ', '', #88, #199 ) ;
#165 = FACE_OUTER_BOUND ( 'NONE', #251, .T. ) ;
#166 = ADVANCED_FACE ( 'NONE', ( #299, #285 ), #46, .T. ) ;
#167 = DIRECTION ( 'NONE',  ( 0.000000000000000000, 0.000000000000000000, 1.000000000000000000 ) ) ;
#168 = CALENDAR_DATE ( 2022, 7, 7 ) ;
#169 = EDGE_CURVE ( 'NONE', #81, #98, #283, .T. ) ;
#170 = FACE_OUTER_BOUND ( 'NONE', #6, .T. ) ;
#171 = CARTESIAN_POINT ( 'NONE',  ( 0.000000000000000000, 0.000000000000000000, 0.000000000000000000 ) ) ;
#172 = AXIS2_PLACEMENT_3D ( 'NONE', #268, #77, #82 ) ;
#173 = FACE_OUTER_BOUND ( 'NONE', #51, .T. ) ;
#174 = ORIENTED_EDGE ( 'NONE', *, *, #169, .F. ) ;
#175 = EDGE_CURVE ( 'NONE', #11, #1, #179, .T. ) ;
#176 = ORIENTED_EDGE ( 'NONE', *, *, #83, .F. ) ;
#177 = CYLINDRICAL_SURFACE ( 'NONE', #71, 7.000000000000000888 ) ;
#178 = ADVANCED_BREP_SHAPE_REPRESENTATION ( '4dbe', ( #78, #227 ), #43 ) ;
#179 = CIRCLE ( 'NONE', #213, 7.000000000000000888 ) ;
#180 = DIRECTION ( 'NONE',  ( -0.000000000000000000, -0.000000000000000000, -1.000000000000000000 ) ) ;
#181 = DIRECTION ( 'NONE',  ( 1.000000000000000000, 0.000000000000000000, 0.000000000000000000 ) ) ;
#182 = APPROVAL_ROLE ( '' ) ;
#183 = DIRECTION ( 'NONE',  ( 1.000000000000000000, 0.000000000000000000, 0.000000000000000000 ) ) ;
#184 = ORGANIZATION ( 'NEURÈENÝ', 'NEURÈENÝ', '' ) ;
#185 = CARTESIAN_POINT ( 'NONE',  ( 0.000000000000000000, 0.000000000000000000, 7.200000000000011724 ) ) ;
#186 = FACE_OUTER_BOUND ( 'NONE', #258, .T. ) ;
#187 = ORIENTED_EDGE ( 'NONE', *, *, #203, .F. ) ;
#188 = CARTESIAN_POINT ( 'NONE',  ( 7.000000000000000888, 8.572527594031474176E-16, 7.200000000000011724 ) ) ;
#189 = EDGE_CURVE ( 'NONE', #1, #11, #256, .T. ) ;
#190 = ORIENTED_EDGE ( 'NONE', *, *, #240, .T. ) ;
#191 = CARTESIAN_POINT ( 'NONE',  ( -7.000000000000000888, 0.000000000000000000, 7.200000000000011724 ) ) ;
#192 = EDGE_LOOP ( 'NONE', ( #152, #190 ) ) ;
#193 = CIRCLE ( 'NONE', #97, 7.000000000000000888 ) ;
#194 = CARTESIAN_POINT ( 'NONE',  ( -7.000000000000000888, 0.000000000000000000, 257.0000000000000000 ) ) ;
#195 = EDGE_CURVE ( 'NONE', #8, #212, #143, .T. ) ;
#196 = ORIENTED_EDGE ( 'NONE', *, *, #289, .F. ) ;
#197 = APPROVAL_STATUS ( 'not_yet_approved' ) ;
#198 = PRODUCT_RELATED_PRODUCT_CATEGORY ( 'detail', '', ( #228 ) ) ;
#199 = DESIGN_CONTEXT ( 'detailed design', #262, 'design' ) ;
#200 = DIRECTION ( 'NONE',  ( 0.000000000000000000, -1.000000000000000000, 0.000000000000000000 ) ) ;
#201 = AXIS2_PLACEMENT_3D ( 'NONE', #241, #30, #290 ) ;
#202 = CARTESIAN_POINT ( 'NONE',  ( 11.00000000000000000, 1.347111479062088405E-15, 0.000000000000000000 ) ) ;
#203 = EDGE_CURVE ( 'NONE', #155, #131, #87, .T. ) ;
#204 = CIRCLE ( 'NONE', #73, 11.00000000000000000 ) ;
#205 = APPROVAL_DATE_TIME ( #254, #29 ) ;
#206 = DIRECTION ( 'NONE',  ( -0.000000000000000000, -0.000000000000000000, -1.000000000000000000 ) ) ;
#207 = DIRECTION ( 'NONE',  ( 1.000000000000000000, 0.000000000000000000, 0.000000000000000000 ) ) ;
#208 = ORIENTED_EDGE ( 'NONE', *, *, #60, .T. ) ;
#209 = PLANE ( 'NONE',  #275 ) ;
#210 = DIRECTION ( 'NONE',  ( 0.000000000000000000, 0.000000000000000000, 1.000000000000000000 ) ) ;
#211 =( NAMED_UNIT ( * ) SI_UNIT ( $, .STERADIAN. ) SOLID_ANGLE_UNIT ( ) );
#212 = VERTEX_POINT ( 'NONE', #257 ) ;
#213 = AXIS2_PLACEMENT_3D ( 'NONE', #280, #234, #22 ) ;
#214 = DIRECTION ( 'NONE',  ( 0.000000000000000000, 0.000000000000000000, 1.000000000000000000 ) ) ;
#215 = ADVANCED_FACE ( 'NONE', ( #186 ), #297, .F. ) ;
#216 = LOCAL_TIME ( 11, 40, 52.00000000000000000, #232 ) ;
#217 = ORIENTED_EDGE ( 'NONE', *, *, #68, .F. ) ;
#218 = CARTESIAN_POINT ( 'NONE',  ( 7.000000000000000888, 8.572527594031474176E-16, 257.0000000000000000 ) ) ;
#219 = DATE_AND_TIME ( #55, #159 ) ;
#220 = ORIENTED_EDGE ( 'NONE', *, *, #13, .T. ) ;
#221 = CARTESIAN_POINT ( 'NONE',  ( 7.000000000000000888, 8.572527594031474176E-16, 257.0000000000000000 ) ) ;
#222 = CARTESIAN_POINT ( 'NONE',  ( 0.000000000000000000, 0.000000000000000000, 257.0000000000000000 ) ) ;
#223 = ADVANCED_FACE ( 'NONE', ( #231 ), #69, .T. ) ;
#224 = PERSON ( 'NEURÈENÝ', 'NEURÈENÝ', 'NEURÈENÝ', ('NEURÈENÝ'), ('NEURÈENÝ'), ('NEURÈENÝ') ) ;
#225 = AXIS2_PLACEMENT_3D ( 'NONE', #245, #75, #269 ) ;
#226 = PRODUCT_DEFINITION_SHAPE ( 'NONE', 'NONE',  #164 ) ;
#227 = AXIS2_PLACEMENT_3D ( 'NONE', #62, #214, #183 ) ;
#228 = PRODUCT ( '4dbe', '4dbe', '', ( #288 ) ) ;
#229 = CALENDAR_DATE ( 2022, 7, 7 ) ;
#230 = CARTESIAN_POINT ( 'NONE',  ( -7.200000000000001066, 8.817456953860944275E-16, 7.200000000000011724 ) ) ;
#231 = FACE_OUTER_BOUND ( 'NONE', #151, .T. ) ;
#232 = COORDINATED_UNIVERSAL_TIME_OFFSET ( 1, 0, .AHEAD. ) ;
#233 = ORIENTED_EDGE ( 'NONE', *, *, #175, .T. ) ;
#234 = DIRECTION ( 'NONE',  ( 0.000000000000000000, 0.000000000000000000, 1.000000000000000000 ) ) ;
#235 = ORIENTED_EDGE ( 'NONE', *, *, #267, .T. ) ;
#236 = CARTESIAN_POINT ( 'NONE',  ( 0.000000000000000000, 0.000000000000000000, 0.000000000000000000 ) ) ;
#237 = EDGE_LOOP ( 'NONE', ( #101, #220 ) ) ;
#238 = DIRECTION ( 'NONE',  ( 0.000000000000000000, 0.000000000000000000, 1.000000000000000000 ) ) ;
#239 = DIRECTION ( 'NONE',  ( 0.000000000000000000, 0.000000000000000000, 1.000000000000000000 ) ) ;
#240 = EDGE_CURVE ( 'NONE', #81, #8, #3, .T. ) ;
#241 = CARTESIAN_POINT ( 'NONE',  ( 0.000000000000000000, 0.000000000000000000, 7.000000000000000000 ) ) ;
#242 = VECTOR ( 'NONE', #33, 1000.000000000000000 ) ;
#243 = APPROVAL_ROLE ( '' ) ;
#244 = AXIS2_PLACEMENT_3D ( 'NONE', #137, #210, #306 ) ;
#245 = CARTESIAN_POINT ( 'NONE',  ( 0.000000000000000000, 0.000000000000000000, 7.000000000000000000 ) ) ;
#246 = ORIENTED_EDGE ( 'NONE', *, *, #138, .T. ) ;
#247 = CALENDAR_DATE ( 2022, 7, 7 ) ;
#248 = ORIENTED_EDGE ( 'NONE', *, *, #83, .T. ) ;
#249 = AXIS2_PLACEMENT_3D ( 'NONE', #253, #134, #120 ) ;
#250 = AXIS2_PLACEMENT_3D ( 'NONE', #298, #42, #277 ) ;
#251 = EDGE_LOOP ( 'NONE', ( #92, #144, #187, #196 ) ) ;
#252 = PERSON_AND_ORGANIZATION_ROLE ( 'creator' ) ;
#253 = CARTESIAN_POINT ( 'NONE',  ( 0.000000000000000000, 0.000000000000000000, 257.0000000000000000 ) ) ;
#254 = DATE_AND_TIME ( #168, #260 ) ;
#255 = APPROVAL_ROLE ( '' ) ;
#256 = CIRCLE ( 'NONE', #124, 7.000000000000000888 ) ;
#257 = CARTESIAN_POINT ( 'NONE',  ( -11.00000000000000000, 0.000000000000000000, 0.000000000000000000 ) ) ;
#258 = EDGE_LOOP ( 'NONE', ( #54, #129, #154, #304 ) ) ;
#259 = APPROVAL ( #197, 'NEURÈENÝ' ) ;
#260 = LOCAL_TIME ( 11, 40, 52.00000000000000000, #95 ) ;
#261 = DIRECTION ( 'NONE',  ( 1.000000000000000000, 0.000000000000000000, -0.000000000000000000 ) ) ;
#262 = APPLICATION_CONTEXT ( 'configuration controlled 3d designs of mechanical parts and assemblies' ) ;
#263 = DIRECTION ( 'NONE',  ( -1.000000000000000000, 0.000000000000000000, 0.000000000000000000 ) ) ;
#264 = DIRECTION ( 'NONE',  ( 0.000000000000000000, 0.000000000000000000, 1.000000000000000000 ) ) ;
#265 = SECURITY_CLASSIFICATION_LEVEL ( 'unclassified' ) ;
#266 = CARTESIAN_POINT ( 'NONE',  ( 11.00000000000000000, 1.347111479062088405E-15, 7.000000000000000000 ) ) ;
#267 = EDGE_CURVE ( 'NONE', #270, #35, #193, .T. ) ;
#268 = CARTESIAN_POINT ( 'NONE',  ( 0.000000000000000000, 0.000000000000000000, 7.000000000000000000 ) ) ;
#269 = DIRECTION ( 'NONE',  ( 1.000000000000000000, 0.000000000000000000, 0.000000000000000000 ) ) ;
#270 = VERTEX_POINT ( 'NONE', #188 ) ;
#271 = PERSON_AND_ORGANIZATION ( #224, #184 ) ;
#272 = ADVANCED_FACE ( 'NONE', ( #165 ), #158, .F. ) ;
#273 = LOCAL_TIME ( 11, 40, 52.00000000000000000, #278 ) ;
#274 = PLANE ( 'NONE',  #249 ) ;
#275 = AXIS2_PLACEMENT_3D ( 'NONE', #236, #238, #261 ) ;
#276 = CC_DESIGN_APPROVAL ( #259, ( #19 ) ) ;
#277 = DIRECTION ( 'NONE',  ( 1.000000000000000000, 0.000000000000000000, 0.000000000000000000 ) ) ;
#278 = COORDINATED_UNIVERSAL_TIME_OFFSET ( 1, 0, .AHEAD. ) ;
#279 = EDGE_CURVE ( 'NONE', #35, #131, #61, .T. ) ;
#280 = CARTESIAN_POINT ( 'NONE',  ( 0.000000000000000000, 0.000000000000000000, 257.0000000000000000 ) ) ;
#281 = AXIS2_PLACEMENT_3D ( 'NONE', #85, #180, #15 ) ;
#282 = DIRECTION ( 'NONE',  ( 1.000000000000000000, 0.000000000000000000, -0.000000000000000000 ) ) ;
#283 = LINE ( 'NONE', #141, #9 ) ;
#284 = ORIENTED_EDGE ( 'NONE', *, *, #20, .T. ) ;
#285 = FACE_OUTER_BOUND ( 'NONE', #192, .T. ) ;
#286 = DIRECTION ( 'NONE',  ( 0.000000000000000000, 0.000000000000000000, 1.000000000000000000 ) ) ;
#287 = CARTESIAN_POINT ( 'NONE',  ( -7.000000000000000888, 0.000000000000000000, 257.0000000000000000 ) ) ;
#288 = MECHANICAL_CONTEXT ( 'NONE', #32, 'mechanical' ) ;
#289 = EDGE_CURVE ( 'NONE', #270, #155, #37, .T. ) ;
#290 = DIRECTION ( 'NONE',  ( 1.000000000000000000, 0.000000000000000000, 0.000000000000000000 ) ) ;
#291 = ORIENTED_EDGE ( 'NONE', *, *, #305, .F. ) ;
#292 = DIRECTION ( 'NONE',  ( 1.000000000000000000, 0.000000000000000000, 0.000000000000000000 ) ) ;
#293 = LINE ( 'NONE', #194, #242 ) ;
#294 = PERSON_AND_ORGANIZATION ( #224, #184 ) ;
#295 = CC_DESIGN_DATE_AND_TIME_ASSIGNMENT ( #163, #112, ( #164 ) ) ;
#296 = CC_DESIGN_SECURITY_CLASSIFICATION ( #19, ( #88 ) ) ;
#297 = TOROIDAL_SURFACE ( 'NONE', #244, 7.200000000000001066, 0.2000000000000000111 ) ;
#298 = CARTESIAN_POINT ( 'NONE',  ( 0.000000000000000000, 0.000000000000000000, 7.200000000000011724 ) ) ;
#299 = FACE_BOUND ( 'NONE', #237, .T. ) ;
#300 = APPROVAL_DATE_TIME ( #116, #80 ) ;
#301 = CIRCLE ( 'NONE', #84, 11.00000000000000000 ) ;
#302 = CARTESIAN_POINT ( 'NONE',  ( 0.000000000000000000, 0.000000000000000000, 7.000000000000000000 ) ) ;
#303 = DIRECTION ( 'NONE',  ( -0.000000000000000000, -0.000000000000000000, -1.000000000000000000 ) ) ;
#304 = ORIENTED_EDGE ( 'NONE', *, *, #13, .F. ) ;
#305 = EDGE_CURVE ( 'NONE', #98, #212, #204, .T. ) ;
#306 = DIRECTION ( 'NONE',  ( 1.000000000000000000, 0.000000000000000000, 0.000000000000000000 ) ) ;
#307 = PERSON_AND_ORGANIZATION_ROLE ( 'design_owner' ) ;
ENDSEC;
END-ISO-10303-21;
