ISO-10303-21;
HEADER;
FILE_DESCRIPTION (( 'STEP AP203' ),
    '1' );
FILE_NAME ('be64.STEP',
    '2023-02-12T10:52:38',
    ( '' ),
    ( '' ),
    'SwSTEP 2.0',
    'SolidWorks 2019',
    '' );
FILE_SCHEMA (( 'CONFIG_CONTROL_DESIGN' ));
ENDSEC;

DATA;
#1 = APPROVAL_PERSON_ORGANIZATION ( #152, #113, #216 ) ;
#2 = DIRECTION ( 'NONE',  ( -1.000000000000000000, 0.000000000000000000, 0.000000000000000000 ) ) ;
#3 = PLANE ( 'NONE',  #81 ) ;
#4 = CARTESIAN_POINT ( 'NONE',  ( 0.000000000000000000, 0.000000000000000000, 315.0000000000000000 ) ) ;
#5 = ADVANCED_FACE ( 'NONE', ( #63 ), #205, .T. ) ;
#6 = CARTESIAN_POINT ( 'NONE',  ( -11.00000000000000000, 0.000000000000000000, 7.000000000000000000 ) ) ;
#7 = DIRECTION ( 'NONE',  ( -0.000000000000000000, -0.000000000000000000, -1.000000000000000000 ) ) ;
#8 = DIRECTION ( 'NONE',  ( -1.000000000000000000, 0.000000000000000000, 0.000000000000000000 ) ) ;
#9 = VERTEX_POINT ( 'NONE', #77 ) ;
#10 = ORIENTED_EDGE ( 'NONE', *, *, #131, .F. ) ;
#11 = CC_DESIGN_PERSON_AND_ORGANIZATION_ASSIGNMENT ( #250, #194, ( #137 ) ) ;
#12 = AXIS2_PLACEMENT_3D ( 'NONE', #92, #40, #25 ) ;
#13 = ORIENTED_EDGE ( 'NONE', *, *, #217, .T. ) ;
#14 = LOCAL_TIME ( 11, 52, 38.00000000000000000, #231 ) ;
#15 = PERSON_AND_ORGANIZATION ( #189, #60 ) ;
#16 = ORIENTED_EDGE ( 'NONE', *, *, #112, .F. ) ;
#17 = CALENDAR_DATE ( 2023, 12, 2 ) ;
#18 = CC_DESIGN_SECURITY_CLASSIFICATION ( #137, ( #83 ) ) ;
#19 = DATE_AND_TIME ( #17, #158 ) ;
#20 = CARTESIAN_POINT ( 'NONE',  ( 0.000000000000000000, 0.000000000000000000, 7.000000000000000000 ) ) ;
#21 = VECTOR ( 'NONE', #125, 1000.000000000000000 ) ;
#22 = PLANE ( 'NONE',  #114 ) ;
#23 = CARTESIAN_POINT ( 'NONE',  ( 0.000000000000000000, 0.000000000000000000, 0.000000000000000000 ) ) ;
#24 = CC_DESIGN_APPROVAL ( #56, ( #53 ) ) ;
#25 = DIRECTION ( 'NONE',  ( 1.000000000000000000, 0.000000000000000000, 0.000000000000000000 ) ) ;
#26 = ORIENTED_EDGE ( 'NONE', *, *, #175, .T. ) ;
#27 = EDGE_CURVE ( 'NONE', #142, #170, #163, .T. ) ;
#28 = EDGE_LOOP ( 'NONE', ( #82, #144 ) ) ;
#29 = APPLICATION_CONTEXT ( 'configuration controlled 3d designs of mechanical parts and assemblies' ) ;
#30 = UNCERTAINTY_MEASURE_WITH_UNIT (LENGTH_MEASURE( 1.000000000000000082E-05 ), #57, 'distance_accuracy_value', 'NONE');
#31 = CLOSED_SHELL ( 'NONE', ( #88, #204, #168, #98, #214, #5, #108 ) ) ;
#32 = DATE_TIME_ROLE ( 'classification_date' ) ;
#33 = COORDINATED_UNIVERSAL_TIME_OFFSET ( 1, 0, .AHEAD. ) ;
#34 = SHAPE_DEFINITION_REPRESENTATION ( #38, #255 ) ;
#35 = PRODUCT_RELATED_PRODUCT_CATEGORY ( 'detail', '', ( #67 ) ) ;
#36 = CYLINDRICAL_SURFACE ( 'NONE', #173, 7.000000000000000888 ) ;
#37 = DIRECTION ( 'NONE',  ( 0.000000000000000000, 0.000000000000000000, 1.000000000000000000 ) ) ;
#38 = PRODUCT_DEFINITION_SHAPE ( 'NONE', 'NONE',  #53 ) ;
#39 = DIRECTION ( 'NONE',  ( 1.000000000000000000, 0.000000000000000000, 0.000000000000000000 ) ) ;
#40 = DIRECTION ( 'NONE',  ( 0.000000000000000000, 0.000000000000000000, 1.000000000000000000 ) ) ;
#41 = CIRCLE ( 'NONE', #65, 7.000000000000000888 ) ;
#42 = CC_DESIGN_APPROVAL ( #140, ( #83 ) ) ;
#43 = PERSON_AND_ORGANIZATION ( #189, #60 ) ;
#44 = DIRECTION ( 'NONE',  ( -0.000000000000000000, -0.000000000000000000, -1.000000000000000000 ) ) ;
#45 = CIRCLE ( 'NONE', #169, 11.00000000000000000 ) ;
#46 = APPROVAL_ROLE ( '' ) ;
#47 = EDGE_CURVE ( 'NONE', #107, #243, #93, .T. ) ;
#48 = DIRECTION ( 'NONE',  ( 1.000000000000000000, 0.000000000000000000, 0.000000000000000000 ) ) ;
#49 = AXIS2_PLACEMENT_3D ( 'NONE', #176, #129, #156 ) ;
#50 = APPROVAL_STATUS ( 'not_yet_approved' ) ;
#51 = LOCAL_TIME ( 11, 52, 38.00000000000000000, #171 ) ;
#52 = PERSON_AND_ORGANIZATION_ROLE ( 'creator' ) ;
#53 = PRODUCT_DEFINITION ( 'NEZNÁMÝ', '', #83, #213 ) ;
#54 = FACE_OUTER_BOUND ( 'NONE', #209, .T. ) ;
#55 = DIRECTION ( 'NONE',  ( 0.000000000000000000, 0.000000000000000000, 1.000000000000000000 ) ) ;
#56 = APPROVAL ( #145, 'NEURÈENÝ' ) ;
#57 =( LENGTH_UNIT ( ) NAMED_UNIT ( * ) SI_UNIT ( .MILLI., .METRE. ) );
#58 = EDGE_LOOP ( 'NONE', ( #10, #16 ) ) ;
#59 = EDGE_LOOP ( 'NONE', ( #120, #167 ) ) ;
#60 = ORGANIZATION ( 'NEURÈENÝ', 'NEURÈENÝ', '' ) ;
#61 = ORIENTED_EDGE ( 'NONE', *, *, #202, .F. ) ;
#62 = APPROVAL_STATUS ( 'not_yet_approved' ) ;
#63 = FACE_OUTER_BOUND ( 'NONE', #212, .T. ) ;
#64 = EDGE_CURVE ( 'NONE', #192, #142, #200, .T. ) ;
#65 = AXIS2_PLACEMENT_3D ( 'NONE', #180, #69, #39 ) ;
#66 = DATE_AND_TIME ( #229, #148 ) ;
#67 = PRODUCT ( 'be64', 'be64', '', ( #143 ) ) ;
#68 = FACE_BOUND ( 'NONE', #58, .T. ) ;
#69 = DIRECTION ( 'NONE',  ( 0.000000000000000000, 0.000000000000000000, 1.000000000000000000 ) ) ;
#70 = DIRECTION ( 'NONE',  ( 0.000000000000000000, 0.000000000000000000, 1.000000000000000000 ) ) ;
#71 = CARTESIAN_POINT ( 'NONE',  ( -11.00000000000000000, 0.000000000000000000, 7.000000000000000000 ) ) ;
#72 = CARTESIAN_POINT ( 'NONE',  ( -7.000000000000000888, 0.000000000000000000, 315.0000000000000000 ) ) ;
#73 = AXIS2_PLACEMENT_3D ( 'NONE', #20, #91, #48 ) ;
#74 = CARTESIAN_POINT ( 'NONE',  ( -7.000000000000000888, 0.000000000000000000, 315.0000000000000000 ) ) ;
#75 = VECTOR ( 'NONE', #7, 1000.000000000000000 ) ;
#76 = EDGE_CURVE ( 'NONE', #142, #192, #111, .T. ) ;
#77 = CARTESIAN_POINT ( 'NONE',  ( -7.000000000000000888, 0.000000000000000000, 7.000000000000000000 ) ) ;
#78 = DIRECTION ( 'NONE',  ( 0.000000000000000000, 0.000000000000000000, 1.000000000000000000 ) ) ;
#79 = EDGE_LOOP ( 'NONE', ( #249, #100 ) ) ;
#80 = DIRECTION ( 'NONE',  ( -0.000000000000000000, -0.000000000000000000, -1.000000000000000000 ) ) ;
#81 = AXIS2_PLACEMENT_3D ( 'NONE', #160, #203, #136 ) ;
#82 = ORIENTED_EDGE ( 'NONE', *, *, #64, .T. ) ;
#83 = PRODUCT_DEFINITION_FORMATION_WITH_SPECIFIED_SOURCE ( 'LIBOVOLNÝ', '', #67, .NOT_KNOWN. ) ;
#84 = CC_DESIGN_DATE_AND_TIME_ASSIGNMENT ( #19, #32, ( #137 ) ) ;
#85 = DATE_AND_TIME ( #233, #14 ) ;
#86 = ORIENTED_EDGE ( 'NONE', *, *, #177, .F. ) ;
#87 = DATE_TIME_ROLE ( 'creation_date' ) ;
#88 = ADVANCED_FACE ( 'NONE', ( #235 ), #36, .T. ) ;
#89 = AXIS2_PLACEMENT_3D ( 'NONE', #223, #165, #8 ) ;
#90 = CC_DESIGN_APPROVAL ( #113, ( #137 ) ) ;
#91 = DIRECTION ( 'NONE',  ( 0.000000000000000000, 0.000000000000000000, 1.000000000000000000 ) ) ;
#92 = CARTESIAN_POINT ( 'NONE',  ( 0.000000000000000000, 0.000000000000000000, 7.000000000000000000 ) ) ;
#93 = CIRCLE ( 'NONE', #244, 7.000000000000000888 ) ;
#94 = FACE_OUTER_BOUND ( 'NONE', #59, .T. ) ;
#95 = DIRECTION ( 'NONE',  ( 0.000000000000000000, 0.000000000000000000, 1.000000000000000000 ) ) ;
#96 = DIRECTION ( 'NONE',  ( -1.000000000000000000, 0.000000000000000000, 0.000000000000000000 ) ) ;
#97 = APPLICATION_CONTEXT ( 'configuration controlled 3d designs of mechanical parts and assemblies' ) ;
#98 = ADVANCED_FACE ( 'NONE', ( #68, #239 ), #3, .T. ) ;
#99 = AXIS2_PLACEMENT_3D ( 'NONE', #4, #70, #161 ) ;
#100 = ORIENTED_EDGE ( 'NONE', *, *, #195, .F. ) ;
#101 = DIRECTION ( 'NONE',  ( 1.000000000000000000, 0.000000000000000000, -0.000000000000000000 ) ) ;
#102 = AXIS2_PLACEMENT_3D ( 'NONE', #242, #248, #105 ) ;
#103 = ORIENTED_EDGE ( 'NONE', *, *, #76, .F. ) ;
#104 = PERSON_AND_ORGANIZATION ( #189, #60 ) ;
#105 = DIRECTION ( 'NONE',  ( -1.000000000000000000, 0.000000000000000000, 0.000000000000000000 ) ) ;
#106 = EDGE_LOOP ( 'NONE', ( #188, #251, #118, #126 ) ) ;
#107 = VERTEX_POINT ( 'NONE', #201 ) ;
#108 = ADVANCED_FACE ( 'NONE', ( #94 ), #22, .T. ) ;
#109 = CALENDAR_DATE ( 2023, 12, 2 ) ;
#110 = DIRECTION ( 'NONE',  ( -0.000000000000000000, -0.000000000000000000, -1.000000000000000000 ) ) ;
#111 = CIRCLE ( 'NONE', #49, 11.00000000000000000 ) ;
#112 = EDGE_CURVE ( 'NONE', #185, #9, #119, .T. ) ;
#113 = APPROVAL ( #62, 'NEURÈENÝ' ) ;
#114 = AXIS2_PLACEMENT_3D ( 'NONE', #184, #37, #218 ) ;
#115 = DIRECTION ( 'NONE',  ( -0.000000000000000000, -0.000000000000000000, -1.000000000000000000 ) ) ;
#116 = CYLINDRICAL_SURFACE ( 'NONE', #186, 11.00000000000000000 ) ;
#117 = FACE_OUTER_BOUND ( 'NONE', #151, .T. ) ;
#118 = ORIENTED_EDGE ( 'NONE', *, *, #112, .T. ) ;
#119 = CIRCLE ( 'NONE', #12, 7.000000000000000888 ) ;
#120 = ORIENTED_EDGE ( 'NONE', *, *, #154, .T. ) ;
#121 = PERSON_AND_ORGANIZATION_ROLE ( 'design_owner' ) ;
#122 = ORIENTED_EDGE ( 'NONE', *, *, #195, .T. ) ;
#123 = COORDINATED_UNIVERSAL_TIME_OFFSET ( 1, 0, .AHEAD. ) ;
#124 = ORIENTED_EDGE ( 'NONE', *, *, #177, .T. ) ;
#125 = DIRECTION ( 'NONE',  ( -0.000000000000000000, -0.000000000000000000, -1.000000000000000000 ) ) ;
#126 = ORIENTED_EDGE ( 'NONE', *, *, #217, .F. ) ;
#127 = CC_DESIGN_PERSON_AND_ORGANIZATION_ASSIGNMENT ( #197, #52, ( #83 ) ) ;
#128 = APPROVAL_DATE_TIME ( #66, #113 ) ;
#129 = DIRECTION ( 'NONE',  ( 0.000000000000000000, 0.000000000000000000, 1.000000000000000000 ) ) ;
#130 = APPROVAL_DATE_TIME ( #85, #140 ) ;
#131 = EDGE_CURVE ( 'NONE', #9, #185, #41, .T. ) ;
#132 = LOCAL_TIME ( 11, 52, 38.00000000000000000, #123 ) ;
#133 = PERSON_AND_ORGANIZATION_ROLE ( 'design_supplier' ) ;
#134 = CC_DESIGN_PERSON_AND_ORGANIZATION_ASSIGNMENT ( #43, #121, ( #67 ) ) ;
#135 = VECTOR ( 'NONE', #44, 1000.000000000000000 ) ;
#136 = DIRECTION ( 'NONE',  ( 1.000000000000000000, 0.000000000000000000, -0.000000000000000000 ) ) ;
#137 = SECURITY_CLASSIFICATION ( '', '', #155 ) ;
#138 = CARTESIAN_POINT ( 'NONE',  ( 0.000000000000000000, 0.000000000000000000, 7.000000000000000000 ) ) ;
#139 = DIRECTION ( 'NONE',  ( 1.000000000000000000, 0.000000000000000000, 0.000000000000000000 ) ) ;
#140 = APPROVAL ( #50, 'NEURÈENÝ' ) ;
#141 = CARTESIAN_POINT ( 'NONE',  ( 7.000000000000000888, 8.572527594031474176E-16, 315.0000000000000000 ) ) ;
#142 = VERTEX_POINT ( 'NONE', #181 ) ;
#143 = MECHANICAL_CONTEXT ( 'NONE', #97, 'mechanical' ) ;
#144 = ORIENTED_EDGE ( 'NONE', *, *, #76, .T. ) ;
#145 = APPROVAL_STATUS ( 'not_yet_approved' ) ;
#146 =( GEOMETRIC_REPRESENTATION_CONTEXT ( 3 ) GLOBAL_UNCERTAINTY_ASSIGNED_CONTEXT ( ( #30 ) ) GLOBAL_UNIT_ASSIGNED_CONTEXT ( ( #57, #162, #221 ) ) REPRESENTATION_CONTEXT ( 'NONE', 'WORKASPACE' ) );
#147 = ORIENTED_EDGE ( 'NONE', *, *, #64, .F. ) ;
#148 = LOCAL_TIME ( 11, 52, 38.00000000000000000, #150 ) ;
#149 = DIRECTION ( 'NONE',  ( 0.000000000000000000, 0.000000000000000000, 1.000000000000000000 ) ) ;
#150 = COORDINATED_UNIVERSAL_TIME_OFFSET ( 1, 0, .AHEAD. ) ;
#151 = EDGE_LOOP ( 'NONE', ( #103, #228, #122, #86 ) ) ;
#152 = PERSON_AND_ORGANIZATION ( #189, #60 ) ;
#153 = CARTESIAN_POINT ( 'NONE',  ( 0.000000000000000000, 0.000000000000000000, 315.0000000000000000 ) ) ;
#154 = EDGE_CURVE ( 'NONE', #243, #107, #254, .T. ) ;
#155 = SECURITY_CLASSIFICATION_LEVEL ( 'unclassified' ) ;
#156 = DIRECTION ( 'NONE',  ( 1.000000000000000000, 0.000000000000000000, 0.000000000000000000 ) ) ;
#157 = AXIS2_PLACEMENT_3D ( 'NONE', #240, #55, #139 ) ;
#158 = LOCAL_TIME ( 11, 52, 38.00000000000000000, #33 ) ;
#159 = DIRECTION ( 'NONE',  ( 1.000000000000000000, 0.000000000000000000, 0.000000000000000000 ) ) ;
#160 = CARTESIAN_POINT ( 'NONE',  ( 0.000000000000000000, 0.000000000000000000, 7.000000000000000000 ) ) ;
#161 = DIRECTION ( 'NONE',  ( 1.000000000000000000, 0.000000000000000000, 0.000000000000000000 ) ) ;
#162 =( NAMED_UNIT ( * ) PLANE_ANGLE_UNIT ( ) SI_UNIT ( $, .RADIAN. ) );
#163 = LINE ( 'NONE', #224, #135 ) ;
#164 = DIRECTION ( 'NONE',  ( 1.000000000000000000, 0.000000000000000000, 0.000000000000000000 ) ) ;
#165 = DIRECTION ( 'NONE',  ( -0.000000000000000000, -0.000000000000000000, -1.000000000000000000 ) ) ;
#166 = CC_DESIGN_PERSON_AND_ORGANIZATION_ASSIGNMENT ( #215, #133, ( #83 ) ) ;
#167 = ORIENTED_EDGE ( 'NONE', *, *, #47, .T. ) ;
#168 = ADVANCED_FACE ( 'NONE', ( #54 ), #116, .T. ) ;
#169 = AXIS2_PLACEMENT_3D ( 'NONE', #23, #95, #159 ) ;
#170 = VERTEX_POINT ( 'NONE', #219 ) ;
#171 = COORDINATED_UNIVERSAL_TIME_OFFSET ( 1, 0, .AHEAD. ) ;
#172 = ORIENTED_EDGE ( 'NONE', *, *, #131, .T. ) ;
#173 = AXIS2_PLACEMENT_3D ( 'NONE', #199, #110, #2 ) ;
#174 = APPROVAL_DATE_TIME ( #193, #56 ) ;
#175 = EDGE_CURVE ( 'NONE', #207, #170, #45, .T. ) ;
#176 = CARTESIAN_POINT ( 'NONE',  ( 0.000000000000000000, 0.000000000000000000, 7.000000000000000000 ) ) ;
#177 = EDGE_CURVE ( 'NONE', #192, #207, #183, .T. ) ;
#178 = CIRCLE ( 'NONE', #157, 11.00000000000000000 ) ;
#179 = CC_DESIGN_PERSON_AND_ORGANIZATION_ASSIGNMENT ( #252, #253, ( #53 ) ) ;
#180 = CARTESIAN_POINT ( 'NONE',  ( 0.000000000000000000, 0.000000000000000000, 7.000000000000000000 ) ) ;
#181 = CARTESIAN_POINT ( 'NONE',  ( 11.00000000000000000, 1.347111479062088405E-15, 7.000000000000000000 ) ) ;
#182 = AXIS2_PLACEMENT_3D ( 'NONE', #206, #78, #164 ) ;
#183 = LINE ( 'NONE', #6, #75 ) ;
#184 = CARTESIAN_POINT ( 'NONE',  ( 0.000000000000000000, 0.000000000000000000, 315.0000000000000000 ) ) ;
#185 = VERTEX_POINT ( 'NONE', #238 ) ;
#186 = AXIS2_PLACEMENT_3D ( 'NONE', #138, #115, #96 ) ;
#187 = LINE ( 'NONE', #72, #225 ) ;
#188 = ORIENTED_EDGE ( 'NONE', *, *, #47, .F. ) ;
#189 = PERSON ( 'NEURÈENÝ', 'NEURÈENÝ', 'NEURÈENÝ', ('NEURÈENÝ'), ('NEURÈENÝ'), ('NEURÈENÝ') ) ;
#190 = MANIFOLD_SOLID_BREP ( 'Pøidat vysunutím3', #31 ) ;
#191 = FACE_OUTER_BOUND ( 'NONE', #79, .T. ) ;
#192 = VERTEX_POINT ( 'NONE', #71 ) ;
#193 = DATE_AND_TIME ( #210, #132 ) ;
#194 = PERSON_AND_ORGANIZATION_ROLE ( 'classification_officer' ) ;
#195 = EDGE_CURVE ( 'NONE', #170, #207, #178, .T. ) ;
#196 = APPROVAL_ROLE ( '' ) ;
#197 = PERSON_AND_ORGANIZATION ( #189, #60 ) ;
#198 = DIRECTION ( 'NONE',  ( 0.000000000000000000, 0.000000000000000000, 1.000000000000000000 ) ) ;
#199 = CARTESIAN_POINT ( 'NONE',  ( 0.000000000000000000, 0.000000000000000000, 315.0000000000000000 ) ) ;
#200 = CIRCLE ( 'NONE', #73, 11.00000000000000000 ) ;
#201 = CARTESIAN_POINT ( 'NONE',  ( 7.000000000000000888, 8.572527594031474176E-16, 315.0000000000000000 ) ) ;
#202 = EDGE_CURVE ( 'NONE', #107, #185, #220, .T. ) ;
#203 = DIRECTION ( 'NONE',  ( 0.000000000000000000, 0.000000000000000000, 1.000000000000000000 ) ) ;
#204 = ADVANCED_FACE ( 'NONE', ( #117 ), #222, .T. ) ;
#205 = CYLINDRICAL_SURFACE ( 'NONE', #89, 7.000000000000000888 ) ;
#206 = CARTESIAN_POINT ( 'NONE',  ( 0.000000000000000000, 0.000000000000000000, 0.000000000000000000 ) ) ;
#207 = VERTEX_POINT ( 'NONE', #241 ) ;
#208 = APPLICATION_PROTOCOL_DEFINITION ( 'international standard', 'config_control_design', 1994, #29 ) ;
#209 = EDGE_LOOP ( 'NONE', ( #227, #147, #124, #26 ) ) ;
#210 = CALENDAR_DATE ( 2023, 12, 2 ) ;
#211 = PLANE ( 'NONE',  #230 ) ;
#212 = EDGE_LOOP ( 'NONE', ( #61, #246, #13, #172 ) ) ;
#213 = DESIGN_CONTEXT ( 'detailed design', #29, 'design' ) ;
#214 = ADVANCED_FACE ( 'NONE', ( #191 ), #211, .F. ) ;
#215 = PERSON_AND_ORGANIZATION ( #189, #60 ) ;
#216 = APPROVAL_ROLE ( '' ) ;
#217 = EDGE_CURVE ( 'NONE', #243, #9, #187, .T. ) ;
#218 = DIRECTION ( 'NONE',  ( 1.000000000000000000, 0.000000000000000000, -0.000000000000000000 ) ) ;
#219 = CARTESIAN_POINT ( 'NONE',  ( 11.00000000000000000, 1.347111479062088405E-15, 0.000000000000000000 ) ) ;
#220 = LINE ( 'NONE', #141, #21 ) ;
#221 =( NAMED_UNIT ( * ) SI_UNIT ( $, .STERADIAN. ) SOLID_ANGLE_UNIT ( ) );
#222 = CYLINDRICAL_SURFACE ( 'NONE', #102, 11.00000000000000000 ) ;
#223 = CARTESIAN_POINT ( 'NONE',  ( 0.000000000000000000, 0.000000000000000000, 315.0000000000000000 ) ) ;
#224 = CARTESIAN_POINT ( 'NONE',  ( 11.00000000000000000, 1.347111479062088405E-15, 7.000000000000000000 ) ) ;
#225 = VECTOR ( 'NONE', #80, 1000.000000000000000 ) ;
#226 = APPLICATION_PROTOCOL_DEFINITION ( 'international standard', 'config_control_design', 1994, #97 ) ;
#227 = ORIENTED_EDGE ( 'NONE', *, *, #27, .F. ) ;
#228 = ORIENTED_EDGE ( 'NONE', *, *, #27, .T. ) ;
#229 = CALENDAR_DATE ( 2023, 12, 2 ) ;
#230 = AXIS2_PLACEMENT_3D ( 'NONE', #245, #149, #101 ) ;
#231 = COORDINATED_UNIVERSAL_TIME_OFFSET ( 1, 0, .AHEAD. ) ;
#232 = DIRECTION ( 'NONE',  ( 1.000000000000000000, 0.000000000000000000, 0.000000000000000000 ) ) ;
#233 = CALENDAR_DATE ( 2023, 12, 2 ) ;
#234 = DATE_AND_TIME ( #109, #51 ) ;
#235 = FACE_OUTER_BOUND ( 'NONE', #106, .T. ) ;
#236 = CC_DESIGN_DATE_AND_TIME_ASSIGNMENT ( #234, #87, ( #53 ) ) ;
#237 = APPROVAL_PERSON_ORGANIZATION ( #15, #140, #196 ) ;
#238 = CARTESIAN_POINT ( 'NONE',  ( 7.000000000000000888, 8.572527594031474176E-16, 7.000000000000000000 ) ) ;
#239 = FACE_OUTER_BOUND ( 'NONE', #28, .T. ) ;
#240 = CARTESIAN_POINT ( 'NONE',  ( 0.000000000000000000, 0.000000000000000000, 0.000000000000000000 ) ) ;
#241 = CARTESIAN_POINT ( 'NONE',  ( -11.00000000000000000, 0.000000000000000000, 0.000000000000000000 ) ) ;
#242 = CARTESIAN_POINT ( 'NONE',  ( 0.000000000000000000, 0.000000000000000000, 7.000000000000000000 ) ) ;
#243 = VERTEX_POINT ( 'NONE', #74 ) ;
#244 = AXIS2_PLACEMENT_3D ( 'NONE', #153, #198, #232 ) ;
#245 = CARTESIAN_POINT ( 'NONE',  ( 0.000000000000000000, 0.000000000000000000, 0.000000000000000000 ) ) ;
#246 = ORIENTED_EDGE ( 'NONE', *, *, #154, .F. ) ;
#247 = APPROVAL_PERSON_ORGANIZATION ( #104, #56, #46 ) ;
#248 = DIRECTION ( 'NONE',  ( -0.000000000000000000, -0.000000000000000000, -1.000000000000000000 ) ) ;
#249 = ORIENTED_EDGE ( 'NONE', *, *, #175, .F. ) ;
#250 = PERSON_AND_ORGANIZATION ( #189, #60 ) ;
#251 = ORIENTED_EDGE ( 'NONE', *, *, #202, .T. ) ;
#252 = PERSON_AND_ORGANIZATION ( #189, #60 ) ;
#253 = PERSON_AND_ORGANIZATION_ROLE ( 'creator' ) ;
#254 = CIRCLE ( 'NONE', #99, 7.000000000000000888 ) ;
#255 = ADVANCED_BREP_SHAPE_REPRESENTATION ( 'be64', ( #190, #182 ), #146 ) ;
ENDSEC;
END-ISO-10303-21;
