ISO-10303-21;
HEADER;
FILE_DESCRIPTION (( 'STEP AP203' ),
    '1' );
FILE_NAME ('fa35.STEP',
    '2022-07-07T09:28:32',
    ( '' ),
    ( '' ),
    'SwSTEP 2.0',
    'SolidWorks 2019',
    '' );
FILE_SCHEMA (( 'CONFIG_CONTROL_DESIGN' ));
ENDSEC;

DATA;
#1 = VERTEX_POINT ( 'NONE', #22 ) ;
#2 = EDGE_CURVE ( 'NONE', #229, #41, #196, .T. ) ;
#3 = DIRECTION ( 'NONE',  ( 0.000000000000000000, 0.000000000000000000, 1.000000000000000000 ) ) ;
#4 = AXIS2_PLACEMENT_3D ( 'NONE', #178, #268, #205 ) ;
#5 = DIRECTION ( 'NONE',  ( 1.000000000000000000, 0.000000000000000000, -0.000000000000000000 ) ) ;
#6 = CARTESIAN_POINT ( 'NONE',  ( 0.000000000000000000, 0.000000000000000000, 10.00000000000000000 ) ) ;
#7 = CARTESIAN_POINT ( 'NONE',  ( 20.00000000000000000, 2.449293598294706513E-15, 10.00000000000000000 ) ) ;
#8 = ADVANCED_FACE ( 'NONE', ( #23 ), #248, .F. ) ;
#9 = CIRCLE ( 'NONE', #4, 16.19999999999999929 ) ;
#10 = LOCAL_TIME ( 11, 28, 32.00000000000000000, #226 ) ;
#11 = FACE_OUTER_BOUND ( 'NONE', #27, .T. ) ;
#12 = DIRECTION ( 'NONE',  ( -1.000000000000000000, 0.000000000000000000, 0.000000000000000000 ) ) ;
#13 = MECHANICAL_CONTEXT ( 'NONE', #239, 'mechanical' ) ;
#14 = DATE_AND_TIME ( #228, #10 ) ;
#15 = SECURITY_CLASSIFICATION_LEVEL ( 'unclassified' ) ;
#16 = EDGE_LOOP ( 'NONE', ( #51, #236 ) ) ;
#17 = PERSON_AND_ORGANIZATION_ROLE ( 'classification_officer' ) ;
#18 = VECTOR ( 'NONE', #279, 1000.000000000000000 ) ;
#19 = AXIS2_PLACEMENT_3D ( 'NONE', #28, #34, #12 ) ;
#20 = SHAPE_DEFINITION_REPRESENTATION ( #90, #142 ) ;
#21 = COORDINATED_UNIVERSAL_TIME_OFFSET ( 1, 0, .AHEAD. ) ;
#22 = CARTESIAN_POINT ( 'NONE',  ( -20.00000000000000000, 0.000000000000000000, 10.00000000000000000 ) ) ;
#23 = FACE_OUTER_BOUND ( 'NONE', #240, .T. ) ;
#24 = AXIS2_PLACEMENT_3D ( 'NONE', #242, #71, #127 ) ;
#25 = CIRCLE ( 'NONE', #224, 16.00000000000000000 ) ;
#26 = DIRECTION ( 'NONE',  ( 0.000000000000000000, 0.000000000000000000, 1.000000000000000000 ) ) ;
#27 = EDGE_LOOP ( 'NONE', ( #99, #84, #66, #259 ) ) ;
#28 = CARTESIAN_POINT ( 'NONE',  ( 0.000000000000000000, 0.000000000000000000, 1210.000000000000000 ) ) ;
#29 = EDGE_CURVE ( 'NONE', #124, #86, #150, .T. ) ;
#30 = PLANE ( 'NONE',  #213 ) ;
#31 = CC_DESIGN_APPROVAL ( #121, ( #187 ) ) ;
#32 = CARTESIAN_POINT ( 'NONE',  ( 0.000000000000000000, 0.000000000000000000, 0.000000000000000000 ) ) ;
#33 = APPROVAL_PERSON_ORGANIZATION ( #277, #121, #165 ) ;
#34 = DIRECTION ( 'NONE',  ( -0.000000000000000000, -0.000000000000000000, -1.000000000000000000 ) ) ;
#35 = CARTESIAN_POINT ( 'NONE',  ( 16.00000000000000000, 1.959434878635765131E-15, 1210.000000000000000 ) ) ;
#36 = CIRCLE ( 'NONE', #283, 20.00000000000000000 ) ;
#37 = APPROVAL_ROLE ( '' ) ;
#38 = CC_DESIGN_APPROVAL ( #254, ( #177 ) ) ;
#39 = EDGE_CURVE ( 'NONE', #276, #164, #36, .T. ) ;
#40 = PERSON_AND_ORGANIZATION_ROLE ( 'design_owner' ) ;
#41 = VERTEX_POINT ( 'NONE', #216 ) ;
#42 = DATE_TIME_ROLE ( 'creation_date' ) ;
#43 = ORIENTED_EDGE ( 'NONE', *, *, #29, .F. ) ;
#44 = ORIENTED_EDGE ( 'NONE', *, *, #81, .F. ) ;
#45 = AXIS2_PLACEMENT_3D ( 'NONE', #6, #129, #58 ) ;
#46 = EDGE_CURVE ( 'NONE', #1, #164, #307, .T. ) ;
#47 = EDGE_LOOP ( 'NONE', ( #193, #68, #215, #89 ) ) ;
#48 = CALENDAR_DATE ( 2022, 7, 7 ) ;
#49 = CARTESIAN_POINT ( 'NONE',  ( 16.19999999999999929, 0.000000000000000000, 10.19999999999998685 ) ) ;
#50 = EDGE_CURVE ( 'NONE', #241, #1, #170, .T. ) ;
#51 = ORIENTED_EDGE ( 'NONE', *, *, #105, .T. ) ;
#52 = LOCAL_TIME ( 11, 28, 32.00000000000000000, #118 ) ;
#53 = ORIENTED_EDGE ( 'NONE', *, *, #146, .T. ) ;
#54 = LINE ( 'NONE', #147, #18 ) ;
#55 = DIRECTION ( 'NONE',  ( 1.000000000000000000, 0.000000000000000000, 0.000000000000000000 ) ) ;
#56 = VECTOR ( 'NONE', #197, 1000.000000000000000 ) ;
#57 = DIRECTION ( 'NONE',  ( -1.000000000000000000, 1.224646799147353947E-16, 0.000000000000000000 ) ) ;
#58 = DIRECTION ( 'NONE',  ( 1.000000000000000000, 0.000000000000000000, 0.000000000000000000 ) ) ;
#59 = ADVANCED_FACE ( 'NONE', ( #171 ), #175, .F. ) ;
#60 = DIRECTION ( 'NONE',  ( 1.000000000000000000, 0.000000000000000000, 0.000000000000000000 ) ) ;
#61 = AXIS2_PLACEMENT_3D ( 'NONE', #292, #266, #202 ) ;
#62 = DIRECTION ( 'NONE',  ( -1.000000000000000000, 0.000000000000000000, 0.000000000000000000 ) ) ;
#63 = DATE_AND_TIME ( #206, #107 ) ;
#64 = ORIENTED_EDGE ( 'NONE', *, *, #227, .T. ) ;
#65 = AXIS2_PLACEMENT_3D ( 'NONE', #49, #168, #237 ) ;
#66 = ORIENTED_EDGE ( 'NONE', *, *, #46, .T. ) ;
#67 = CALENDAR_DATE ( 2022, 7, 7 ) ;
#68 = ORIENTED_EDGE ( 'NONE', *, *, #227, .F. ) ;
#69 = APPROVAL_STATUS ( 'not_yet_approved' ) ;
#70 = ORIENTED_EDGE ( 'NONE', *, *, #46, .F. ) ;
#71 = DIRECTION ( 'NONE',  ( 0.000000000000000000, 0.000000000000000000, 1.000000000000000000 ) ) ;
#72 = PRODUCT_RELATED_PRODUCT_CATEGORY ( 'detail', '', ( #182 ) ) ;
#73 = DIRECTION ( 'NONE',  ( -0.000000000000000000, -0.000000000000000000, -1.000000000000000000 ) ) ;
#74 = DIRECTION ( 'NONE',  ( 1.000000000000000000, 0.000000000000000000, 0.000000000000000000 ) ) ;
#75 = CARTESIAN_POINT ( 'NONE',  ( -16.00000000000000000, 0.000000000000000000, 1210.000000000000000 ) ) ;
#76 = DIRECTION ( 'NONE',  ( 0.000000000000000000, 0.000000000000000000, 1.000000000000000000 ) ) ;
#77 = CARTESIAN_POINT ( 'NONE',  ( 0.000000000000000000, 0.000000000000000000, 10.00000000000000000 ) ) ;
#78 = AXIS2_PLACEMENT_3D ( 'NONE', #264, #204, #62 ) ;
#79 = DESIGN_CONTEXT ( 'detailed design', #149, 'design' ) ;
#80 = DIRECTION ( 'NONE',  ( -0.000000000000000000, -0.000000000000000000, -1.000000000000000000 ) ) ;
#81 = EDGE_CURVE ( 'NONE', #86, #211, #262, .T. ) ;
#82 = DIRECTION ( 'NONE',  ( 1.000000000000000000, 0.000000000000000000, 0.000000000000000000 ) ) ;
#83 = FACE_OUTER_BOUND ( 'NONE', #143, .T. ) ;
#84 = ORIENTED_EDGE ( 'NONE', *, *, #152, .F. ) ;
#85 = COORDINATED_UNIVERSAL_TIME_OFFSET ( 1, 0, .AHEAD. ) ;
#86 = VERTEX_POINT ( 'NONE', #281 ) ;
#87 = EDGE_CURVE ( 'NONE', #241, #276, #54, .T. ) ;
#88 =( LENGTH_UNIT ( ) NAMED_UNIT ( * ) SI_UNIT ( .MILLI., .METRE. ) );
#89 = ORIENTED_EDGE ( 'NONE', *, *, #117, .F. ) ;
#90 = PRODUCT_DEFINITION_SHAPE ( 'NONE', 'NONE',  #177 ) ;
#91 = COORDINATED_UNIVERSAL_TIME_OFFSET ( 1, 0, .AHEAD. ) ;
#92 = AXIS2_PLACEMENT_3D ( 'NONE', #288, #256, #133 ) ;
#93 = DATE_AND_TIME ( #214, #52 ) ;
#94 = EDGE_LOOP ( 'NONE', ( #43, #282, #64, #44 ) ) ;
#95 = CARTESIAN_POINT ( 'NONE',  ( 0.000000000000000000, 0.000000000000000000, 10.19999999999998685 ) ) ;
#96 = CARTESIAN_POINT ( 'NONE',  ( 0.000000000000000000, 0.000000000000000000, 10.19999999999998685 ) ) ;
#97 = CC_DESIGN_PERSON_AND_ORGANIZATION_ASSIGNMENT ( #253, #116, ( #177 ) ) ;
#98 = CARTESIAN_POINT ( 'NONE',  ( 0.000000000000000000, 0.000000000000000000, 0.000000000000000000 ) ) ;
#99 = ORIENTED_EDGE ( 'NONE', *, *, #87, .F. ) ;
#100 = CIRCLE ( 'NONE', #139, 16.19999999999999929 ) ;
#101 = PRODUCT_DEFINITION_FORMATION_WITH_SPECIFIED_SOURCE ( 'LIBOVOLNÝ', '', #182, .NOT_KNOWN. ) ;
#102 = DIRECTION ( 'NONE',  ( 0.000000000000000000, 0.000000000000000000, 1.000000000000000000 ) ) ;
#103 = DIRECTION ( 'NONE',  ( 0.000000000000000000, 0.000000000000000000, 1.000000000000000000 ) ) ;
#104 = CYLINDRICAL_SURFACE ( 'NONE', #238, 16.00000000000000000 ) ;
#105 = EDGE_CURVE ( 'NONE', #86, #124, #299, .T. ) ;
#106 = AXIS2_PLACEMENT_3D ( 'NONE', #95, #190, #125 ) ;
#107 = LOCAL_TIME ( 11, 28, 32.00000000000000000, #85 ) ;
#108 = DIRECTION ( 'NONE',  ( 1.000000000000000000, 0.000000000000000000, -0.000000000000000000 ) ) ;
#109 = FACE_OUTER_BOUND ( 'NONE', #296, .T. ) ;
#110 = PERSON_AND_ORGANIZATION ( #186, #156 ) ;
#111 = CC_DESIGN_DATE_AND_TIME_ASSIGNMENT ( #93, #189, ( #187 ) ) ;
#112 = APPLICATION_PROTOCOL_DEFINITION ( 'international standard', 'config_control_design', 1994, #149 ) ;
#113 = ORIENTED_EDGE ( 'NONE', *, *, #194, .F. ) ;
#114 = PERSON_AND_ORGANIZATION ( #186, #156 ) ;
#115 = ORIENTED_EDGE ( 'NONE', *, *, #87, .T. ) ;
#116 = PERSON_AND_ORGANIZATION_ROLE ( 'creator' ) ;
#117 = EDGE_CURVE ( 'NONE', #278, #41, #100, .T. ) ;
#118 = COORDINATED_UNIVERSAL_TIME_OFFSET ( 1, 0, .AHEAD. ) ;
#119 = APPROVAL_DATE_TIME ( #166, #121 ) ;
#120 = ORIENTED_EDGE ( 'NONE', *, *, #117, .T. ) ;
#121 = APPROVAL ( #69, 'NEURÈENÝ' ) ;
#122 = CARTESIAN_POINT ( 'NONE',  ( 0.000000000000000000, 0.000000000000000000, 1210.000000000000000 ) ) ;
#123 = CIRCLE ( 'NONE', #203, 0.1999999999999987899 ) ;
#124 = VERTEX_POINT ( 'NONE', #35 ) ;
#125 = DIRECTION ( 'NONE',  ( 1.000000000000000000, 0.000000000000000000, 0.000000000000000000 ) ) ;
#126 = ADVANCED_FACE ( 'NONE', ( #222 ), #104, .T. ) ;
#127 = DIRECTION ( 'NONE',  ( 1.000000000000000000, 0.000000000000000000, 0.000000000000000000 ) ) ;
#128 = DIRECTION ( 'NONE',  ( -0.000000000000000000, -0.000000000000000000, -1.000000000000000000 ) ) ;
#129 = DIRECTION ( 'NONE',  ( 0.000000000000000000, 0.000000000000000000, 1.000000000000000000 ) ) ;
#130 = CARTESIAN_POINT ( 'NONE',  ( 0.000000000000000000, 0.000000000000000000, 10.19999999999998685 ) ) ;
#131 = AXIS2_PLACEMENT_3D ( 'NONE', #298, #295, #188 ) ;
#132 = CARTESIAN_POINT ( 'NONE',  ( -16.19999999999999929, 1.983927814618711846E-15, 10.19999999999998685 ) ) ;
#133 = DIRECTION ( 'NONE',  ( 1.000000000000000000, 0.000000000000000000, -0.000000000000000000 ) ) ;
#134 = APPLICATION_PROTOCOL_DEFINITION ( 'international standard', 'config_control_design', 1994, #239 ) ;
#135 = PERSON_AND_ORGANIZATION ( #186, #156 ) ;
#136 = MANIFOLD_SOLID_BREP ( 'Zaoblit1', #207 ) ;
#137 = APPROVAL_DATE_TIME ( #14, #140 ) ;
#138 = ORIENTED_EDGE ( 'NONE', *, *, #152, .T. ) ;
#139 = AXIS2_PLACEMENT_3D ( 'NONE', #302, #73, #60 ) ;
#140 = APPROVAL ( #230, 'NEURÈENÝ' ) ;
#141 = ORIENTED_EDGE ( 'NONE', *, *, #2, .F. ) ;
#142 = ADVANCED_BREP_SHAPE_REPRESENTATION ( 'fa35', ( #136, #131 ), #144 ) ;
#143 = EDGE_LOOP ( 'NONE', ( #257, #115, #250, #70 ) ) ;
#144 =( GEOMETRIC_REPRESENTATION_CONTEXT ( 3 ) GLOBAL_UNCERTAINTY_ASSIGNED_CONTEXT ( ( #267 ) ) GLOBAL_UNIT_ASSIGNED_CONTEXT ( ( #88, #208, #273 ) ) REPRESENTATION_CONTEXT ( 'NONE', 'WORKASPACE' ) );
#145 = ORIENTED_EDGE ( 'NONE', *, *, #162, .T. ) ;
#146 = EDGE_CURVE ( 'NONE', #41, #278, #9, .T. ) ;
#147 = CARTESIAN_POINT ( 'NONE',  ( 20.00000000000000000, 2.449293598294706513E-15, 10.00000000000000000 ) ) ;
#148 = CARTESIAN_POINT ( 'NONE',  ( -16.00000000000000000, 0.000000000000000000, 10.19999999999998685 ) ) ;
#149 = APPLICATION_CONTEXT ( 'configuration controlled 3d designs of mechanical parts and assemblies' ) ;
#150 = CIRCLE ( 'NONE', #191, 16.00000000000000000 ) ;
#151 = DIRECTION ( 'NONE',  ( 0.000000000000000000, 0.000000000000000000, 1.000000000000000000 ) ) ;
#152 = EDGE_CURVE ( 'NONE', #1, #241, #183, .T. ) ;
#153 = CARTESIAN_POINT ( 'NONE',  ( 0.000000000000000000, 0.000000000000000000, 10.19999999999998685 ) ) ;
#154 = DIRECTION ( 'NONE',  ( 1.224646799147353207E-16, 1.000000000000000000, -0.000000000000000000 ) ) ;
#155 = AXIS2_PLACEMENT_3D ( 'NONE', #96, #305, #173 ) ;
#156 = ORGANIZATION ( 'NEURÈENÝ', 'NEURÈENÝ', '' ) ;
#157 = CARTESIAN_POINT ( 'NONE',  ( -16.19999999999999929, 1.983927814618711846E-15, 9.999999999999992895 ) ) ;
#158 = APPROVAL_DATE_TIME ( #63, #254 ) ;
#159 = ORIENTED_EDGE ( 'NONE', *, *, #105, .F. ) ;
#160 = PERSON_AND_ORGANIZATION ( #186, #156 ) ;
#161 = AXIS2_PLACEMENT_3D ( 'NONE', #32, #151, #5 ) ;
#162 = EDGE_CURVE ( 'NONE', #211, #278, #123, .T. ) ;
#163 = DATE_AND_TIME ( #67, #198 ) ;
#164 = VERTEX_POINT ( 'NONE', #225 ) ;
#165 = APPROVAL_ROLE ( '' ) ;
#166 = DATE_AND_TIME ( #48, #306 ) ;
#167 = ORIENTED_EDGE ( 'NONE', *, *, #180, .F. ) ;
#168 = DIRECTION ( 'NONE',  ( 0.000000000000000000, -1.000000000000000000, 0.000000000000000000 ) ) ;
#169 = ORIENTED_EDGE ( 'NONE', *, *, #39, .F. ) ;
#170 = CIRCLE ( 'NONE', #265, 20.00000000000000000 ) ;
#171 = FACE_OUTER_BOUND ( 'NONE', #47, .T. ) ;
#172 = CC_DESIGN_APPROVAL ( #140, ( #101 ) ) ;
#173 = DIRECTION ( 'NONE',  ( 1.000000000000000000, 0.000000000000000000, 0.000000000000000000 ) ) ;
#174 = CYLINDRICAL_SURFACE ( 'NONE', #78, 20.00000000000000000 ) ;
#175 = TOROIDAL_SURFACE ( 'NONE', #155, 16.19999999999999929, 0.2000000000000000111 ) ;
#176 = VECTOR ( 'NONE', #80, 1000.000000000000000 ) ;
#177 = PRODUCT_DEFINITION ( 'NEZNÁMÝ', '', #101, #79 ) ;
#178 = CARTESIAN_POINT ( 'NONE',  ( 0.000000000000000000, 0.000000000000000000, 10.00000000000000000 ) ) ;
#179 = FACE_BOUND ( 'NONE', #192, .T. ) ;
#180 = EDGE_CURVE ( 'NONE', #211, #229, #289, .T. ) ;
#181 = CARTESIAN_POINT ( 'NONE',  ( 20.00000000000000000, 2.449293598294706513E-15, 0.000000000000000000 ) ) ;
#182 = PRODUCT ( 'fa35', 'fa35', '', ( #13 ) ) ;
#183 = CIRCLE ( 'NONE', #45, 20.00000000000000000 ) ;
#184 = EDGE_LOOP ( 'NONE', ( #113, #159, #272, #258 ) ) ;
#185 = PERSON_AND_ORGANIZATION ( #186, #156 ) ;
#186 = PERSON ( 'NEURÈENÝ', 'NEURÈENÝ', 'NEURÈENÝ', ('NEURÈENÝ'), ('NEURÈENÝ'), ('NEURÈENÝ') ) ;
#187 = SECURITY_CLASSIFICATION ( '', '', #15 ) ;
#188 = DIRECTION ( 'NONE',  ( 1.000000000000000000, 0.000000000000000000, 0.000000000000000000 ) ) ;
#189 = DATE_TIME_ROLE ( 'classification_date' ) ;
#190 = DIRECTION ( 'NONE',  ( 0.000000000000000000, 0.000000000000000000, 1.000000000000000000 ) ) ;
#191 = AXIS2_PLACEMENT_3D ( 'NONE', #122, #26, #217 ) ;
#192 = EDGE_LOOP ( 'NONE', ( #53, #120 ) ) ;
#193 = ORIENTED_EDGE ( 'NONE', *, *, #162, .F. ) ;
#194 = EDGE_CURVE ( 'NONE', #124, #229, #270, .T. ) ;
#195 = CARTESIAN_POINT ( 'NONE',  ( 0.000000000000000000, 0.000000000000000000, 10.00000000000000000 ) ) ;
#196 = CIRCLE ( 'NONE', #65, 0.2000000000000005107 ) ;
#197 = DIRECTION ( 'NONE',  ( -0.000000000000000000, -0.000000000000000000, -1.000000000000000000 ) ) ;
#198 = LOCAL_TIME ( 11, 28, 32.00000000000000000, #91 ) ;
#199 = CYLINDRICAL_SURFACE ( 'NONE', #61, 20.00000000000000000 ) ;
#200 = CARTESIAN_POINT ( 'NONE',  ( 16.00000000000000000, 1.959434878635765131E-15, 10.19999999999998685 ) ) ;
#201 = ADVANCED_FACE ( 'NONE', ( #287 ), #219, .T. ) ;
#202 = DIRECTION ( 'NONE',  ( -1.000000000000000000, 0.000000000000000000, 0.000000000000000000 ) ) ;
#203 = AXIS2_PLACEMENT_3D ( 'NONE', #132, #154, #57 ) ;
#204 = DIRECTION ( 'NONE',  ( -0.000000000000000000, -0.000000000000000000, -1.000000000000000000 ) ) ;
#205 = DIRECTION ( 'NONE',  ( 1.000000000000000000, 0.000000000000000000, 0.000000000000000000 ) ) ;
#206 = CALENDAR_DATE ( 2022, 7, 7 ) ;
#207 = CLOSED_SHELL ( 'NONE', ( #8, #201, #260, #233, #220, #212, #126, #285, #59 ) ) ;
#208 =( NAMED_UNIT ( * ) PLANE_ANGLE_UNIT ( ) SI_UNIT ( $, .RADIAN. ) );
#209 = ORIENTED_EDGE ( 'NONE', *, *, #50, .T. ) ;
#210 = PERSON_AND_ORGANIZATION_ROLE ( 'design_supplier' ) ;
#211 = VERTEX_POINT ( 'NONE', #148 ) ;
#212 = ADVANCED_FACE ( 'NONE', ( #109 ), #293, .F. ) ;
#213 = AXIS2_PLACEMENT_3D ( 'NONE', #77, #102, #108 ) ;
#214 = CALENDAR_DATE ( 2022, 7, 7 ) ;
#215 = ORIENTED_EDGE ( 'NONE', *, *, #2, .T. ) ;
#216 = CARTESIAN_POINT ( 'NONE',  ( 16.19999999999999929, 0.000000000000000000, 9.999999999999992895 ) ) ;
#217 = DIRECTION ( 'NONE',  ( 1.000000000000000000, 0.000000000000000000, 0.000000000000000000 ) ) ;
#218 = DIRECTION ( 'NONE',  ( 1.000000000000000000, 0.000000000000000000, 0.000000000000000000 ) ) ;
#219 = CYLINDRICAL_SURFACE ( 'NONE', #19, 16.00000000000000000 ) ;
#220 = ADVANCED_FACE ( 'NONE', ( #179, #269 ), #30, .T. ) ;
#221 = DIRECTION ( 'NONE',  ( -1.000000000000000000, 0.000000000000000000, 0.000000000000000000 ) ) ;
#222 = FACE_OUTER_BOUND ( 'NONE', #184, .T. ) ;
#223 = DIRECTION ( 'NONE',  ( 0.000000000000000000, 0.000000000000000000, 1.000000000000000000 ) ) ;
#224 = AXIS2_PLACEMENT_3D ( 'NONE', #130, #223, #82 ) ;
#225 = CARTESIAN_POINT ( 'NONE',  ( -20.00000000000000000, 0.000000000000000000, 0.000000000000000000 ) ) ;
#226 = COORDINATED_UNIVERSAL_TIME_OFFSET ( 1, 0, .AHEAD. ) ;
#227 = EDGE_CURVE ( 'NONE', #229, #211, #25, .T. ) ;
#228 = CALENDAR_DATE ( 2022, 7, 7 ) ;
#229 = VERTEX_POINT ( 'NONE', #200 ) ;
#230 = APPROVAL_STATUS ( 'not_yet_approved' ) ;
#231 = EDGE_LOOP ( 'NONE', ( #138, #209 ) ) ;
#232 = PERSON_AND_ORGANIZATION ( #186, #156 ) ;
#233 = ADVANCED_FACE ( 'NONE', ( #11 ), #174, .T. ) ;
#234 = VECTOR ( 'NONE', #263, 1000.000000000000000 ) ;
#235 = CIRCLE ( 'NONE', #252, 20.00000000000000000 ) ;
#236 = ORIENTED_EDGE ( 'NONE', *, *, #29, .T. ) ;
#237 = DIRECTION ( 'NONE',  ( 0.000000000000000000, 0.000000000000000000, -1.000000000000000000 ) ) ;
#238 = AXIS2_PLACEMENT_3D ( 'NONE', #247, #128, #221 ) ;
#239 = APPLICATION_CONTEXT ( 'configuration controlled 3d designs of mechanical parts and assemblies' ) ;
#240 = EDGE_LOOP ( 'NONE', ( #167, #145, #274, #141 ) ) ;
#241 = VERTEX_POINT ( 'NONE', #7 ) ;
#242 = CARTESIAN_POINT ( 'NONE',  ( 0.000000000000000000, 0.000000000000000000, 1210.000000000000000 ) ) ;
#243 = CC_DESIGN_PERSON_AND_ORGANIZATION_ASSIGNMENT ( #232, #17, ( #187 ) ) ;
#244 = PLANE ( 'NONE',  #92 ) ;
#245 = DIRECTION ( 'NONE',  ( 1.000000000000000000, 0.000000000000000000, 0.000000000000000000 ) ) ;
#246 = CARTESIAN_POINT ( 'NONE',  ( 16.00000000000000000, 1.959434878635765131E-15, 1210.000000000000000 ) ) ;
#247 = CARTESIAN_POINT ( 'NONE',  ( 0.000000000000000000, 0.000000000000000000, 1210.000000000000000 ) ) ;
#248 = TOROIDAL_SURFACE ( 'NONE', #106, 16.19999999999999929, 0.2000000000000000111 ) ;
#249 = CARTESIAN_POINT ( 'NONE',  ( 0.000000000000000000, 0.000000000000000000, 0.000000000000000000 ) ) ;
#250 = ORIENTED_EDGE ( 'NONE', *, *, #39, .T. ) ;
#251 = APPROVAL_STATUS ( 'not_yet_approved' ) ;
#252 = AXIS2_PLACEMENT_3D ( 'NONE', #249, #76, #55 ) ;
#253 = PERSON_AND_ORGANIZATION ( #186, #156 ) ;
#254 = APPROVAL ( #251, 'NEURÈENÝ' ) ;
#255 = ORIENTED_EDGE ( 'NONE', *, *, #280, .F. ) ;
#256 = DIRECTION ( 'NONE',  ( 0.000000000000000000, 0.000000000000000000, 1.000000000000000000 ) ) ;
#257 = ORIENTED_EDGE ( 'NONE', *, *, #50, .F. ) ;
#258 = ORIENTED_EDGE ( 'NONE', *, *, #180, .T. ) ;
#259 = ORIENTED_EDGE ( 'NONE', *, *, #280, .T. ) ;
#260 = ADVANCED_FACE ( 'NONE', ( #83 ), #199, .T. ) ;
#261 = CARTESIAN_POINT ( 'NONE',  ( -20.00000000000000000, 0.000000000000000000, 10.00000000000000000 ) ) ;
#262 = LINE ( 'NONE', #75, #234 ) ;
#263 = DIRECTION ( 'NONE',  ( -0.000000000000000000, -0.000000000000000000, -1.000000000000000000 ) ) ;
#264 = CARTESIAN_POINT ( 'NONE',  ( 0.000000000000000000, 0.000000000000000000, 10.00000000000000000 ) ) ;
#265 = AXIS2_PLACEMENT_3D ( 'NONE', #195, #286, #74 ) ;
#266 = DIRECTION ( 'NONE',  ( -0.000000000000000000, -0.000000000000000000, -1.000000000000000000 ) ) ;
#267 = UNCERTAINTY_MEASURE_WITH_UNIT (LENGTH_MEASURE( 1.000000000000000082E-05 ), #88, 'distance_accuracy_value', 'NONE');
#268 = DIRECTION ( 'NONE',  ( -0.000000000000000000, -0.000000000000000000, -1.000000000000000000 ) ) ;
#269 = FACE_OUTER_BOUND ( 'NONE', #231, .T. ) ;
#270 = LINE ( 'NONE', #246, #176 ) ;
#271 = APPROVAL_ROLE ( '' ) ;
#272 = ORIENTED_EDGE ( 'NONE', *, *, #81, .T. ) ;
#273 =( NAMED_UNIT ( * ) SI_UNIT ( $, .STERADIAN. ) SOLID_ANGLE_UNIT ( ) );
#274 = ORIENTED_EDGE ( 'NONE', *, *, #146, .F. ) ;
#275 = APPROVAL_PERSON_ORGANIZATION ( #185, #140, #37 ) ;
#276 = VERTEX_POINT ( 'NONE', #181 ) ;
#277 = PERSON_AND_ORGANIZATION ( #186, #156 ) ;
#278 = VERTEX_POINT ( 'NONE', #157 ) ;
#279 = DIRECTION ( 'NONE',  ( -0.000000000000000000, -0.000000000000000000, -1.000000000000000000 ) ) ;
#280 = EDGE_CURVE ( 'NONE', #164, #276, #235, .T. ) ;
#281 = CARTESIAN_POINT ( 'NONE',  ( -16.00000000000000000, 0.000000000000000000, 1210.000000000000000 ) ) ;
#282 = ORIENTED_EDGE ( 'NONE', *, *, #194, .T. ) ;
#283 = AXIS2_PLACEMENT_3D ( 'NONE', #98, #3, #218 ) ;
#284 = AXIS2_PLACEMENT_3D ( 'NONE', #153, #103, #245 ) ;
#285 = ADVANCED_FACE ( 'NONE', ( #290 ), #244, .T. ) ;
#286 = DIRECTION ( 'NONE',  ( 0.000000000000000000, 0.000000000000000000, 1.000000000000000000 ) ) ;
#287 = FACE_OUTER_BOUND ( 'NONE', #94, .T. ) ;
#288 = CARTESIAN_POINT ( 'NONE',  ( 0.000000000000000000, 0.000000000000000000, 1210.000000000000000 ) ) ;
#289 = CIRCLE ( 'NONE', #284, 16.00000000000000000 ) ;
#290 = FACE_OUTER_BOUND ( 'NONE', #16, .T. ) ;
#291 = CC_DESIGN_PERSON_AND_ORGANIZATION_ASSIGNMENT ( #110, #301, ( #101 ) ) ;
#292 = CARTESIAN_POINT ( 'NONE',  ( 0.000000000000000000, 0.000000000000000000, 10.00000000000000000 ) ) ;
#293 = PLANE ( 'NONE',  #161 ) ;
#294 = CC_DESIGN_DATE_AND_TIME_ASSIGNMENT ( #163, #42, ( #177 ) ) ;
#295 = DIRECTION ( 'NONE',  ( 0.000000000000000000, 0.000000000000000000, 1.000000000000000000 ) ) ;
#296 = EDGE_LOOP ( 'NONE', ( #255, #169 ) ) ;
#297 = CC_DESIGN_PERSON_AND_ORGANIZATION_ASSIGNMENT ( #160, #40, ( #182 ) ) ;
#298 = CARTESIAN_POINT ( 'NONE',  ( 0.000000000000000000, 0.000000000000000000, 0.000000000000000000 ) ) ;
#299 = CIRCLE ( 'NONE', #24, 16.00000000000000000 ) ;
#300 = APPROVAL_PERSON_ORGANIZATION ( #135, #254, #271 ) ;
#301 = PERSON_AND_ORGANIZATION_ROLE ( 'creator' ) ;
#302 = CARTESIAN_POINT ( 'NONE',  ( 0.000000000000000000, 0.000000000000000000, 10.00000000000000000 ) ) ;
#303 = CC_DESIGN_SECURITY_CLASSIFICATION ( #187, ( #101 ) ) ;
#304 = CC_DESIGN_PERSON_AND_ORGANIZATION_ASSIGNMENT ( #114, #210, ( #101 ) ) ;
#305 = DIRECTION ( 'NONE',  ( 0.000000000000000000, 0.000000000000000000, 1.000000000000000000 ) ) ;
#306 = LOCAL_TIME ( 11, 28, 32.00000000000000000, #21 ) ;
#307 = LINE ( 'NONE', #261, #56 ) ;
ENDSEC;
END-ISO-10303-21;
