ISO-10303-21;
HEADER;
FILE_DESCRIPTION (( 'STEP AP203' ),
    '1' );
FILE_NAME ('d38c.STEP',
    '2022-07-07T09:50:00',
    ( '' ),
    ( '' ),
    'SwSTEP 2.0',
    'SolidWorks 2019',
    '' );
FILE_SCHEMA (( 'CONFIG_CONTROL_DESIGN' ));
ENDSEC;

DATA;
#1 = MECHANICAL_CONTEXT ( 'NONE', #107, 'mechanical' ) ;
#2 = FACE_OUTER_BOUND ( 'NONE', #173, .T. ) ;
#3 = DIRECTION ( 'NONE',  ( 0.000000000000000000, 0.000000000000000000, 1.000000000000000000 ) ) ;
#4 = APPLICATION_PROTOCOL_DEFINITION ( 'international standard', 'config_control_design', 1994, #107 ) ;
#5 = CARTESIAN_POINT ( 'NONE',  ( -5.250000000000000888, 0.000000000000000000, 505.0000000000000000 ) ) ;
#6 = ORIENTED_EDGE ( 'NONE', *, *, #192, .T. ) ;
#7 = DIRECTION ( 'NONE',  ( 1.000000000000000000, 0.000000000000000000, 0.000000000000000000 ) ) ;
#8 = EDGE_CURVE ( 'NONE', #123, #80, #15, .T. ) ;
#9 = VERTEX_POINT ( 'NONE', #12 ) ;
#10 = DIRECTION ( 'NONE',  ( 1.000000000000000000, 0.000000000000000000, 0.000000000000000000 ) ) ;
#11 = AXIS2_PLACEMENT_3D ( 'NONE', #29, #72, #98 ) ;
#12 = CARTESIAN_POINT ( 'NONE',  ( -8.000000000000000000, 0.000000000000000000, 0.000000000000000000 ) ) ;
#13 = ORIENTED_EDGE ( 'NONE', *, *, #189, .F. ) ;
#14 = DIRECTION ( 'NONE',  ( 1.000000000000000000, 0.000000000000000000, -0.000000000000000000 ) ) ;
#15 = CIRCLE ( 'NONE', #181, 5.450000000000001066 ) ;
#16 = ADVANCED_FACE ( 'NONE', ( #103 ), #136, .F. ) ;
#17 = AXIS2_PLACEMENT_3D ( 'NONE', #248, #303, #14 ) ;
#18 = LOCAL_TIME ( 11, 50, 0.000000000000000000, #164 ) ;
#19 = CC_DESIGN_PERSON_AND_ORGANIZATION_ASSIGNMENT ( #21, #68, ( #218 ) ) ;
#20 = CALENDAR_DATE ( 2022, 7, 7 ) ;
#21 = PERSON_AND_ORGANIZATION ( #282, #284 ) ;
#22 = AXIS2_PLACEMENT_3D ( 'NONE', #81, #244, #44 ) ;
#23 = DIRECTION ( 'NONE',  ( 0.000000000000000000, 0.000000000000000000, 1.000000000000000000 ) ) ;
#24 = LOCAL_TIME ( 11, 50, 0.000000000000000000, #288 ) ;
#25 = CALENDAR_DATE ( 2022, 7, 7 ) ;
#26 = CARTESIAN_POINT ( 'NONE',  ( 0.000000000000000000, 0.000000000000000000, 5.000000000000000000 ) ) ;
#27 = DATE_AND_TIME ( #25, #18 ) ;
#28 = DIRECTION ( 'NONE',  ( 0.000000000000000000, 0.000000000000000000, 1.000000000000000000 ) ) ;
#29 = CARTESIAN_POINT ( 'NONE',  ( 0.000000000000000000, 0.000000000000000000, 505.0000000000000000 ) ) ;
#30 = EDGE_CURVE ( 'NONE', #272, #294, #208, .T. ) ;
#31 = ORIENTED_EDGE ( 'NONE', *, *, #157, .T. ) ;
#32 = ORIENTED_EDGE ( 'NONE', *, *, #154, .F. ) ;
#33 = DIRECTION ( 'NONE',  ( -0.000000000000000000, -0.000000000000000000, -1.000000000000000000 ) ) ;
#34 = ADVANCED_BREP_SHAPE_REPRESENTATION ( 'd38c', ( #233, #262 ), #178 ) ;
#35 = LOCAL_TIME ( 11, 50, 0.000000000000000000, #257 ) ;
#36 = CC_DESIGN_PERSON_AND_ORGANIZATION_ASSIGNMENT ( #212, #184, ( #134 ) ) ;
#37 = EDGE_LOOP ( 'NONE', ( #41, #245, #78, #13 ) ) ;
#38 = EDGE_LOOP ( 'NONE', ( #216, #197 ) ) ;
#39 = CIRCLE ( 'NONE', #249, 5.250000000000000888 ) ;
#40 = CARTESIAN_POINT ( 'NONE',  ( 0.000000000000000000, 0.000000000000000000, 505.0000000000000000 ) ) ;
#41 = ORIENTED_EDGE ( 'NONE', *, *, #192, .F. ) ;
#42 = FACE_OUTER_BOUND ( 'NONE', #152, .T. ) ;
#43 = ORIENTED_EDGE ( 'NONE', *, *, #281, .T. ) ;
#44 = DIRECTION ( 'NONE',  ( -1.000000000000000000, 0.000000000000000000, 0.000000000000000000 ) ) ;
#45 = CIRCLE ( 'NONE', #258, 8.000000000000000000 ) ;
#46 = CARTESIAN_POINT ( 'NONE',  ( -5.450000000000001066, 6.674325055353076224E-16, 5.199999999999982414 ) ) ;
#47 = PERSON_AND_ORGANIZATION ( #282, #284 ) ;
#48 = AXIS2_PLACEMENT_3D ( 'NONE', #153, #300, #105 ) ;
#49 = PERSON_AND_ORGANIZATION_ROLE ( 'design_supplier' ) ;
#50 = CARTESIAN_POINT ( 'NONE',  ( -5.450000000000001066, 6.674325055353076224E-16, 4.999999999999991118 ) ) ;
#51 = PERSON_AND_ORGANIZATION_ROLE ( 'classification_officer' ) ;
#52 = AXIS2_PLACEMENT_3D ( 'NONE', #191, #267, #241 ) ;
#53 = CARTESIAN_POINT ( 'NONE',  ( 5.450000000000001066, 0.000000000000000000, 4.999999999999991118 ) ) ;
#54 = APPROVAL_ROLE ( '' ) ;
#55 = ORIENTED_EDGE ( 'NONE', *, *, #158, .F. ) ;
#56 = AXIS2_PLACEMENT_3D ( 'NONE', #301, #291, #74 ) ;
#57 = FACE_OUTER_BOUND ( 'NONE', #61, .T. ) ;
#58 = VERTEX_POINT ( 'NONE', #265 ) ;
#59 = LINE ( 'NONE', #124, #279 ) ;
#60 = CC_DESIGN_PERSON_AND_ORGANIZATION_ASSIGNMENT ( #47, #51, ( #180 ) ) ;
#61 = EDGE_LOOP ( 'NONE', ( #63, #145, #121, #240 ) ) ;
#62 = PLANE ( 'NONE',  #17 ) ;
#63 = ORIENTED_EDGE ( 'NONE', *, *, #157, .F. ) ;
#64 = ORIENTED_EDGE ( 'NONE', *, *, #182, .F. ) ;
#65 = DIRECTION ( 'NONE',  ( 0.000000000000000000, 0.000000000000000000, 1.000000000000000000 ) ) ;
#66 = EDGE_CURVE ( 'NONE', #175, #266, #120, .T. ) ;
#67 = VECTOR ( 'NONE', #83, 1000.000000000000000 ) ;
#68 = PERSON_AND_ORGANIZATION_ROLE ( 'creator' ) ;
#69 = DIRECTION ( 'NONE',  ( 0.000000000000000000, 0.000000000000000000, 1.000000000000000000 ) ) ;
#70 = CYLINDRICAL_SURFACE ( 'NONE', #293, 8.000000000000000000 ) ;
#71 = PERSON_AND_ORGANIZATION ( #282, #284 ) ;
#72 = DIRECTION ( 'NONE',  ( 0.000000000000000000, 0.000000000000000000, 1.000000000000000000 ) ) ;
#73 = CC_DESIGN_APPROVAL ( #194, ( #218 ) ) ;
#74 = DIRECTION ( 'NONE',  ( 1.000000000000000000, 0.000000000000000000, 0.000000000000000000 ) ) ;
#75 = EDGE_CURVE ( 'NONE', #58, #9, #45, .T. ) ;
#76 = CIRCLE ( 'NONE', #168, 5.450000000000001066 ) ;
#77 = FACE_OUTER_BOUND ( 'NONE', #37, .T. ) ;
#78 = ORIENTED_EDGE ( 'NONE', *, *, #75, .T. ) ;
#79 = ORIENTED_EDGE ( 'NONE', *, *, #30, .F. ) ;
#80 = VERTEX_POINT ( 'NONE', #50 ) ;
#81 = CARTESIAN_POINT ( 'NONE',  ( 0.000000000000000000, 0.000000000000000000, 505.0000000000000000 ) ) ;
#82 = ORIENTED_EDGE ( 'NONE', *, *, #111, .F. ) ;
#83 = DIRECTION ( 'NONE',  ( -0.000000000000000000, -0.000000000000000000, -1.000000000000000000 ) ) ;
#84 = ADVANCED_FACE ( 'NONE', ( #2 ), #101, .F. ) ;
#85 = TOROIDAL_SURFACE ( 'NONE', #48, 5.450000000000001066, 0.2000000000000000111 ) ;
#86 = APPROVAL ( #162, 'NEURÈENÝ' ) ;
#87 = AXIS2_PLACEMENT_3D ( 'NONE', #143, #90, #165 ) ;
#88 = DATE_TIME_ROLE ( 'creation_date' ) ;
#89 = APPROVAL_STATUS ( 'not_yet_approved' ) ;
#90 = DIRECTION ( 'NONE',  ( -0.000000000000000000, -0.000000000000000000, -1.000000000000000000 ) ) ;
#91 = APPROVAL_DATE_TIME ( #27, #207 ) ;
#92 = CARTESIAN_POINT ( 'NONE',  ( 0.000000000000000000, 0.000000000000000000, 0.000000000000000000 ) ) ;
#93 = COORDINATED_UNIVERSAL_TIME_OFFSET ( 1, 0, .AHEAD. ) ;
#94 = CARTESIAN_POINT ( 'NONE',  ( 0.000000000000000000, 0.000000000000000000, 0.000000000000000000 ) ) ;
#95 = CC_DESIGN_DATE_AND_TIME_ASSIGNMENT ( #116, #88, ( #218 ) ) ;
#96 = DIRECTION ( 'NONE',  ( 1.000000000000000000, 0.000000000000000000, 0.000000000000000000 ) ) ;
#97 = CIRCLE ( 'NONE', #52, 0.1999999999999996503 ) ;
#98 = DIRECTION ( 'NONE',  ( 1.000000000000000000, 0.000000000000000000, 0.000000000000000000 ) ) ;
#99 = EDGE_LOOP ( 'NONE', ( #219, #6 ) ) ;
#100 = ORIENTED_EDGE ( 'NONE', *, *, #189, .T. ) ;
#101 = PLANE ( 'NONE',  #230 ) ;
#102 = FACE_OUTER_BOUND ( 'NONE', #99, .T. ) ;
#103 = FACE_OUTER_BOUND ( 'NONE', #225, .T. ) ;
#104 = ADVANCED_FACE ( 'NONE', ( #57 ), #140, .T. ) ;
#105 = DIRECTION ( 'NONE',  ( 1.000000000000000000, 0.000000000000000000, 0.000000000000000000 ) ) ;
#106 = ORIENTED_EDGE ( 'NONE', *, *, #66, .T. ) ;
#107 = APPLICATION_CONTEXT ( 'configuration controlled 3d designs of mechanical parts and assemblies' ) ;
#108 = AXIS2_PLACEMENT_3D ( 'NONE', #40, #65, #229 ) ;
#109 = FACE_OUTER_BOUND ( 'NONE', #144, .T. ) ;
#110 = DIRECTION ( 'NONE',  ( -1.000000000000000000, 0.000000000000000000, 0.000000000000000000 ) ) ;
#111 = EDGE_CURVE ( 'NONE', #266, #273, #205, .T. ) ;
#112 = CIRCLE ( 'NONE', #256, 8.000000000000000000 ) ;
#113 = CIRCLE ( 'NONE', #11, 5.250000000000000888 ) ;
#114 = APPLICATION_PROTOCOL_DEFINITION ( 'international standard', 'config_control_design', 1994, #305 ) ;
#115 = DIRECTION ( 'NONE',  ( 1.000000000000000000, 0.000000000000000000, 0.000000000000000000 ) ) ;
#116 = DATE_AND_TIME ( #211, #24 ) ;
#117 = LOCAL_TIME ( 11, 50, 0.000000000000000000, #93 ) ;
#118 = DIRECTION ( 'NONE',  ( 1.000000000000000000, 0.000000000000000000, 0.000000000000000000 ) ) ;
#119 = PERSON_AND_ORGANIZATION ( #282, #284 ) ;
#120 = LINE ( 'NONE', #146, #304 ) ;
#121 = ORIENTED_EDGE ( 'NONE', *, *, #204, .T. ) ;
#122 = CARTESIAN_POINT ( 'NONE',  ( 0.000000000000000000, 0.000000000000000000, 505.0000000000000000 ) ) ;
#123 = VERTEX_POINT ( 'NONE', #53 ) ;
#124 = CARTESIAN_POINT ( 'NONE',  ( -8.000000000000000000, 0.000000000000000000, 5.000000000000000000 ) ) ;
#125 = ORIENTED_EDGE ( 'NONE', *, *, #131, .F. ) ;
#126 = AXIS2_PLACEMENT_3D ( 'NONE', #186, #261, #239 ) ;
#127 =( NAMED_UNIT ( * ) PLANE_ANGLE_UNIT ( ) SI_UNIT ( $, .RADIAN. ) );
#128 = EDGE_LOOP ( 'NONE', ( #247, #32, #106, #151 ) ) ;
#129 = LINE ( 'NONE', #174, #67 ) ;
#130 = CARTESIAN_POINT ( 'NONE',  ( 0.000000000000000000, 0.000000000000000000, 5.000000000000000000 ) ) ;
#131 = EDGE_CURVE ( 'NONE', #80, #123, #76, .T. ) ;
#132 = FACE_OUTER_BOUND ( 'NONE', #128, .T. ) ;
#133 = ADVANCED_FACE ( 'NONE', ( #77 ), #70, .T. ) ;
#134 = PRODUCT_DEFINITION_FORMATION_WITH_SPECIFIED_SOURCE ( 'LIBOVOLNÝ', '', #221, .NOT_KNOWN. ) ;
#135 = COORDINATED_UNIVERSAL_TIME_OFFSET ( 1, 0, .AHEAD. ) ;
#136 = TOROIDAL_SURFACE ( 'NONE', #253, 5.450000000000001066, 0.2000000000000000111 ) ;
#137 = DATE_AND_TIME ( #259, #117 ) ;
#138 = DIRECTION ( 'NONE',  ( 1.000000000000000000, 0.000000000000000000, -0.000000000000000000 ) ) ;
#139 = APPROVAL_ROLE ( '' ) ;
#140 = CYLINDRICAL_SURFACE ( 'NONE', #87, 5.250000000000000888 ) ;
#141 = CLOSED_SHELL ( 'NONE', ( #223, #104, #133, #255, #210, #84, #268, #278, #16 ) ) ;
#142 = SECURITY_CLASSIFICATION_LEVEL ( 'unclassified' ) ;
#143 = CARTESIAN_POINT ( 'NONE',  ( 0.000000000000000000, 0.000000000000000000, 505.0000000000000000 ) ) ;
#144 = EDGE_LOOP ( 'NONE', ( #82, #43, #298, #64 ) ) ;
#145 = ORIENTED_EDGE ( 'NONE', *, *, #276, .T. ) ;
#146 = CARTESIAN_POINT ( 'NONE',  ( -5.250000000000000888, 0.000000000000000000, 505.0000000000000000 ) ) ;
#147 =( NAMED_UNIT ( * ) SI_UNIT ( $, .STERADIAN. ) SOLID_ANGLE_UNIT ( ) );
#148 = DIRECTION ( 'NONE',  ( -0.000000000000000000, -0.000000000000000000, -1.000000000000000000 ) ) ;
#149 = PRODUCT_DEFINITION_SHAPE ( 'NONE', 'NONE',  #218 ) ;
#150 = CARTESIAN_POINT ( 'NONE',  ( -8.000000000000000000, 0.000000000000000000, 5.000000000000000000 ) ) ;
#151 = ORIENTED_EDGE ( 'NONE', *, *, #111, .T. ) ;
#152 = EDGE_LOOP ( 'NONE', ( #271, #79, #100, #200 ) ) ;
#153 = CARTESIAN_POINT ( 'NONE',  ( 0.000000000000000000, 0.000000000000000000, 5.199999999999982414 ) ) ;
#154 = EDGE_CURVE ( 'NONE', #175, #243, #113, .T. ) ;
#155 = AXIS2_PLACEMENT_3D ( 'NONE', #235, #23, #118 ) ;
#156 = CARTESIAN_POINT ( 'NONE',  ( -5.250000000000000888, 0.000000000000000000, 5.199999999999982414 ) ) ;
#157 = EDGE_CURVE ( 'NONE', #243, #175, #39, .T. ) ;
#158 = EDGE_CURVE ( 'NONE', #9, #58, #112, .T. ) ;
#159 = APPROVAL_PERSON_ORGANIZATION ( #187, #194, #307 ) ;
#160 = PRODUCT_RELATED_PRODUCT_CATEGORY ( 'detail', '', ( #221 ) ) ;
#161 = APPROVAL_PERSON_ORGANIZATION ( #119, #86, #139 ) ;
#162 = APPROVAL_STATUS ( 'not_yet_approved' ) ;
#163 = CARTESIAN_POINT ( 'NONE',  ( 8.000000000000000000, 9.797174393178825657E-16, 5.000000000000000000 ) ) ;
#164 = COORDINATED_UNIVERSAL_TIME_OFFSET ( 1, 0, .AHEAD. ) ;
#165 = DIRECTION ( 'NONE',  ( -1.000000000000000000, 0.000000000000000000, 0.000000000000000000 ) ) ;
#166 = PERSON_AND_ORGANIZATION ( #282, #284 ) ;
#167 = DIRECTION ( 'NONE',  ( 0.000000000000000000, 0.000000000000000000, 1.000000000000000000 ) ) ;
#168 = AXIS2_PLACEMENT_3D ( 'NONE', #289, #287, #292 ) ;
#169 = ORIENTED_EDGE ( 'NONE', *, *, #204, .F. ) ;
#170 = DIRECTION ( 'NONE',  ( -1.000000000000000000, 0.000000000000000000, 0.000000000000000000 ) ) ;
#171 = ORIENTED_EDGE ( 'NONE', *, *, #154, .T. ) ;
#172 = DIRECTION ( 'NONE',  ( 1.000000000000000000, 0.000000000000000000, 0.000000000000000000 ) ) ;
#173 = EDGE_LOOP ( 'NONE', ( #55, #222 ) ) ;
#174 = CARTESIAN_POINT ( 'NONE',  ( 5.250000000000000888, 6.429395695523605139E-16, 505.0000000000000000 ) ) ;
#175 = VERTEX_POINT ( 'NONE', #5 ) ;
#176 = CYLINDRICAL_SURFACE ( 'NONE', #201, 8.000000000000000000 ) ;
#177 =( LENGTH_UNIT ( ) NAMED_UNIT ( * ) SI_UNIT ( .MILLI., .METRE. ) );
#178 =( GEOMETRIC_REPRESENTATION_CONTEXT ( 3 ) GLOBAL_UNCERTAINTY_ASSIGNED_CONTEXT ( ( #277 ) ) GLOBAL_UNIT_ASSIGNED_CONTEXT ( ( #177, #127, #147 ) ) REPRESENTATION_CONTEXT ( 'NONE', 'WORKASPACE' ) );
#179 = AXIS2_PLACEMENT_3D ( 'NONE', #220, #69, #10 ) ;
#180 = SECURITY_CLASSIFICATION ( '', '', #142 ) ;
#181 = AXIS2_PLACEMENT_3D ( 'NONE', #190, #148, #172 ) ;
#182 = EDGE_CURVE ( 'NONE', #273, #123, #97, .T. ) ;
#183 = APPROVAL_DATE_TIME ( #285, #86 ) ;
#184 = PERSON_AND_ORGANIZATION_ROLE ( 'creator' ) ;
#185 = CARTESIAN_POINT ( 'NONE',  ( 0.000000000000000000, 0.000000000000000000, 0.000000000000000000 ) ) ;
#186 = CARTESIAN_POINT ( 'NONE',  ( 0.000000000000000000, 0.000000000000000000, 5.199999999999982414 ) ) ;
#187 = PERSON_AND_ORGANIZATION ( #282, #284 ) ;
#188 = DIRECTION ( 'NONE',  ( 1.000000000000000000, 0.000000000000000000, 0.000000000000000000 ) ) ;
#189 = EDGE_CURVE ( 'NONE', #272, #9, #59, .T. ) ;
#190 = CARTESIAN_POINT ( 'NONE',  ( 0.000000000000000000, 0.000000000000000000, 5.000000000000000000 ) ) ;
#191 = CARTESIAN_POINT ( 'NONE',  ( 5.450000000000001066, 0.000000000000000000, 5.199999999999982414 ) ) ;
#192 = EDGE_CURVE ( 'NONE', #294, #272, #227, .T. ) ;
#193 = ORIENTED_EDGE ( 'NONE', *, *, #182, .T. ) ;
#194 = APPROVAL ( #209, 'NEURÈENÝ' ) ;
#195 = LINE ( 'NONE', #163, #290 ) ;
#196 = CARTESIAN_POINT ( 'NONE',  ( 5.250000000000000888, 6.429395695523605139E-16, 505.0000000000000000 ) ) ;
#197 = ORIENTED_EDGE ( 'NONE', *, *, #131, .T. ) ;
#198 = DIRECTION ( 'NONE',  ( -1.000000000000000000, 1.224646799147353454E-16, 0.000000000000000000 ) ) ;
#199 = EDGE_CURVE ( 'NONE', #294, #58, #195, .T. ) ;
#200 = ORIENTED_EDGE ( 'NONE', *, *, #158, .T. ) ;
#201 = AXIS2_PLACEMENT_3D ( 'NONE', #130, #302, #110 ) ;
#202 = CC_DESIGN_APPROVAL ( #86, ( #180 ) ) ;
#203 = CARTESIAN_POINT ( 'NONE',  ( 5.250000000000000888, 6.429395695523605139E-16, 5.199999999999982414 ) ) ;
#204 = EDGE_CURVE ( 'NONE', #273, #266, #275, .T. ) ;
#205 = CIRCLE ( 'NONE', #126, 5.250000000000000888 ) ;
#206 = AXIS2_PLACEMENT_3D ( 'NONE', #46, #226, #198 ) ;
#207 = APPROVAL ( #89, 'NEURÈENÝ' ) ;
#208 = CIRCLE ( 'NONE', #56, 8.000000000000000000 ) ;
#209 = APPROVAL_STATUS ( 'not_yet_approved' ) ;
#210 = ADVANCED_FACE ( 'NONE', ( #213, #102 ), #62, .T. ) ;
#211 = CALENDAR_DATE ( 2022, 7, 7 ) ;
#212 = PERSON_AND_ORGANIZATION ( #282, #284 ) ;
#213 = FACE_BOUND ( 'NONE', #38, .T. ) ;
#214 = PERSON_AND_ORGANIZATION_ROLE ( 'design_owner' ) ;
#215 = DIRECTION ( 'NONE',  ( -0.000000000000000000, -0.000000000000000000, -1.000000000000000000 ) ) ;
#216 = ORIENTED_EDGE ( 'NONE', *, *, #8, .T. ) ;
#217 = DIRECTION ( 'NONE',  ( 0.000000000000000000, 0.000000000000000000, 1.000000000000000000 ) ) ;
#218 = PRODUCT_DEFINITION ( 'NEZNÁMÝ', '', #134, #251 ) ;
#219 = ORIENTED_EDGE ( 'NONE', *, *, #30, .T. ) ;
#220 = CARTESIAN_POINT ( 'NONE',  ( 0.000000000000000000, 0.000000000000000000, 5.000000000000000000 ) ) ;
#221 = PRODUCT ( 'd38c', 'd38c', '', ( #1 ) ) ;
#222 = ORIENTED_EDGE ( 'NONE', *, *, #75, .F. ) ;
#223 = ADVANCED_FACE ( 'NONE', ( #109 ), #85, .F. ) ;
#224 = CYLINDRICAL_SURFACE ( 'NONE', #22, 5.250000000000000888 ) ;
#225 = EDGE_LOOP ( 'NONE', ( #295, #169, #193, #125 ) ) ;
#226 = DIRECTION ( 'NONE',  ( 1.224646799147353207E-16, 1.000000000000000000, -0.000000000000000000 ) ) ;
#227 = CIRCLE ( 'NONE', #179, 8.000000000000000000 ) ;
#228 = CC_DESIGN_APPROVAL ( #207, ( #134 ) ) ;
#229 = DIRECTION ( 'NONE',  ( 1.000000000000000000, 0.000000000000000000, -0.000000000000000000 ) ) ;
#230 = AXIS2_PLACEMENT_3D ( 'NONE', #92, #3, #138 ) ;
#231 = PERSON_AND_ORGANIZATION ( #282, #284 ) ;
#232 = DATE_TIME_ROLE ( 'classification_date' ) ;
#233 = MANIFOLD_SOLID_BREP ( 'Zaoblit1', #141 ) ;
#234 = APPROVAL_DATE_TIME ( #137, #194 ) ;
#235 = CARTESIAN_POINT ( 'NONE',  ( 0.000000000000000000, 0.000000000000000000, 5.199999999999982414 ) ) ;
#236 = DIRECTION ( 'NONE',  ( 1.000000000000000000, 0.000000000000000000, 0.000000000000000000 ) ) ;
#237 = CALENDAR_DATE ( 2022, 7, 7 ) ;
#238 = CARTESIAN_POINT ( 'NONE',  ( 0.000000000000000000, 0.000000000000000000, 5.199999999999982414 ) ) ;
#239 = DIRECTION ( 'NONE',  ( 1.000000000000000000, 0.000000000000000000, 0.000000000000000000 ) ) ;
#240 = ORIENTED_EDGE ( 'NONE', *, *, #66, .F. ) ;
#241 = DIRECTION ( 'NONE',  ( 0.000000000000000000, 0.000000000000000000, -1.000000000000000000 ) ) ;
#242 = APPROVAL_PERSON_ORGANIZATION ( #71, #207, #54 ) ;
#243 = VERTEX_POINT ( 'NONE', #196 ) ;
#244 = DIRECTION ( 'NONE',  ( -0.000000000000000000, -0.000000000000000000, -1.000000000000000000 ) ) ;
#245 = ORIENTED_EDGE ( 'NONE', *, *, #199, .T. ) ;
#246 = DIRECTION ( 'NONE',  ( 0.000000000000000000, 0.000000000000000000, 1.000000000000000000 ) ) ;
#247 = ORIENTED_EDGE ( 'NONE', *, *, #276, .F. ) ;
#248 = CARTESIAN_POINT ( 'NONE',  ( 0.000000000000000000, 0.000000000000000000, 5.000000000000000000 ) ) ;
#249 = AXIS2_PLACEMENT_3D ( 'NONE', #122, #217, #7 ) ;
#250 = CC_DESIGN_SECURITY_CLASSIFICATION ( #180, ( #134 ) ) ;
#251 = DESIGN_CONTEXT ( 'detailed design', #305, 'design' ) ;
#252 = FACE_OUTER_BOUND ( 'NONE', #269, .T. ) ;
#253 = AXIS2_PLACEMENT_3D ( 'NONE', #238, #28, #96 ) ;
#254 = CC_DESIGN_PERSON_AND_ORGANIZATION_ASSIGNMENT ( #231, #214, ( #221 ) ) ;
#255 = ADVANCED_FACE ( 'NONE', ( #42 ), #176, .T. ) ;
#256 = AXIS2_PLACEMENT_3D ( 'NONE', #185, #296, #236 ) ;
#257 = COORDINATED_UNIVERSAL_TIME_OFFSET ( 1, 0, .AHEAD. ) ;
#258 = AXIS2_PLACEMENT_3D ( 'NONE', #94, #167, #188 ) ;
#259 = CALENDAR_DATE ( 2022, 7, 7 ) ;
#260 = DIRECTION ( 'NONE',  ( -0.000000000000000000, -0.000000000000000000, -1.000000000000000000 ) ) ;
#261 = DIRECTION ( 'NONE',  ( 0.000000000000000000, 0.000000000000000000, 1.000000000000000000 ) ) ;
#262 = AXIS2_PLACEMENT_3D ( 'NONE', #270, #246, #115 ) ;
#263 = DATE_AND_TIME ( #237, #299 ) ;
#264 = CC_DESIGN_PERSON_AND_ORGANIZATION_ASSIGNMENT ( #166, #49, ( #134 ) ) ;
#265 = CARTESIAN_POINT ( 'NONE',  ( 8.000000000000000000, 9.797174393178825657E-16, 0.000000000000000000 ) ) ;
#266 = VERTEX_POINT ( 'NONE', #156 ) ;
#267 = DIRECTION ( 'NONE',  ( 0.000000000000000000, -1.000000000000000000, 0.000000000000000000 ) ) ;
#268 = ADVANCED_FACE ( 'NONE', ( #132 ), #224, .T. ) ;
#269 = EDGE_LOOP ( 'NONE', ( #171, #31 ) ) ;
#270 = CARTESIAN_POINT ( 'NONE',  ( 0.000000000000000000, 0.000000000000000000, 0.000000000000000000 ) ) ;
#271 = ORIENTED_EDGE ( 'NONE', *, *, #199, .F. ) ;
#272 = VERTEX_POINT ( 'NONE', #150 ) ;
#273 = VERTEX_POINT ( 'NONE', #203 ) ;
#274 = CARTESIAN_POINT ( 'NONE',  ( 8.000000000000000000, 9.797174393178825657E-16, 5.000000000000000000 ) ) ;
#275 = CIRCLE ( 'NONE', #155, 5.250000000000000888 ) ;
#276 = EDGE_CURVE ( 'NONE', #243, #273, #129, .T. ) ;
#277 = UNCERTAINTY_MEASURE_WITH_UNIT (LENGTH_MEASURE( 1.000000000000000082E-05 ), #177, 'distance_accuracy_value', 'NONE');
#278 = ADVANCED_FACE ( 'NONE', ( #252 ), #297, .T. ) ;
#279 = VECTOR ( 'NONE', #286, 1000.000000000000000 ) ;
#280 = CIRCLE ( 'NONE', #206, 0.1999999999999996503 ) ;
#281 = EDGE_CURVE ( 'NONE', #266, #80, #280, .T. ) ;
#282 = PERSON ( 'NEURÈENÝ', 'NEURÈENÝ', 'NEURÈENÝ', ('NEURÈENÝ'), ('NEURÈENÝ'), ('NEURÈENÝ') ) ;
#283 = SHAPE_DEFINITION_REPRESENTATION ( #149, #34 ) ;
#284 = ORGANIZATION ( 'NEURÈENÝ', 'NEURÈENÝ', '' ) ;
#285 = DATE_AND_TIME ( #20, #35 ) ;
#286 = DIRECTION ( 'NONE',  ( -0.000000000000000000, -0.000000000000000000, -1.000000000000000000 ) ) ;
#287 = DIRECTION ( 'NONE',  ( -0.000000000000000000, -0.000000000000000000, -1.000000000000000000 ) ) ;
#288 = COORDINATED_UNIVERSAL_TIME_OFFSET ( 1, 0, .AHEAD. ) ;
#289 = CARTESIAN_POINT ( 'NONE',  ( 0.000000000000000000, 0.000000000000000000, 5.000000000000000000 ) ) ;
#290 = VECTOR ( 'NONE', #260, 1000.000000000000000 ) ;
#291 = DIRECTION ( 'NONE',  ( 0.000000000000000000, 0.000000000000000000, 1.000000000000000000 ) ) ;
#292 = DIRECTION ( 'NONE',  ( 1.000000000000000000, 0.000000000000000000, 0.000000000000000000 ) ) ;
#293 = AXIS2_PLACEMENT_3D ( 'NONE', #26, #33, #170 ) ;
#294 = VERTEX_POINT ( 'NONE', #274 ) ;
#295 = ORIENTED_EDGE ( 'NONE', *, *, #281, .F. ) ;
#296 = DIRECTION ( 'NONE',  ( 0.000000000000000000, 0.000000000000000000, 1.000000000000000000 ) ) ;
#297 = PLANE ( 'NONE',  #108 ) ;
#298 = ORIENTED_EDGE ( 'NONE', *, *, #8, .F. ) ;
#299 = LOCAL_TIME ( 11, 50, 0.000000000000000000, #135 ) ;
#300 = DIRECTION ( 'NONE',  ( 0.000000000000000000, 0.000000000000000000, 1.000000000000000000 ) ) ;
#301 = CARTESIAN_POINT ( 'NONE',  ( 0.000000000000000000, 0.000000000000000000, 5.000000000000000000 ) ) ;
#302 = DIRECTION ( 'NONE',  ( -0.000000000000000000, -0.000000000000000000, -1.000000000000000000 ) ) ;
#303 = DIRECTION ( 'NONE',  ( 0.000000000000000000, 0.000000000000000000, 1.000000000000000000 ) ) ;
#304 = VECTOR ( 'NONE', #215, 1000.000000000000000 ) ;
#305 = APPLICATION_CONTEXT ( 'configuration controlled 3d designs of mechanical parts and assemblies' ) ;
#306 = CC_DESIGN_DATE_AND_TIME_ASSIGNMENT ( #263, #232, ( #180 ) ) ;
#307 = APPROVAL_ROLE ( '' ) ;
ENDSEC;
END-ISO-10303-21;
