ISO-10303-21;
HEADER;
FILE_DESCRIPTION (( 'STEP AP203' ),
    '1' );
FILE_NAME ('9342.STEP',
    '2022-07-07T10:22:10',
    ( '' ),
    ( '' ),
    'SwSTEP 2.0',
    'SolidWorks 2019',
    '' );
FILE_SCHEMA (( 'CONFIG_CONTROL_DESIGN' ));
ENDSEC;

DATA;
#1 = DIRECTION ( 'NONE',  ( 0.000000000000000000, 0.000000000000000000, 1.000000000000000000 ) ) ;
#2 = PLANE ( 'NONE',  #74 ) ;
#3 = ORIENTED_EDGE ( 'NONE', *, *, #53, .F. ) ;
#4 = DIRECTION ( 'NONE',  ( 1.000000000000000000, 0.000000000000000000, 0.000000000000000000 ) ) ;
#5 = ADVANCED_BREP_SHAPE_REPRESENTATION ( '9342', ( #202, #54 ), #13 ) ;
#6 = DIRECTION ( 'NONE',  ( 1.000000000000000000, 0.000000000000000000, 0.000000000000000000 ) ) ;
#7 = CIRCLE ( 'NONE', #208, 0.2000000000000000944 ) ;
#8 = CARTESIAN_POINT ( 'NONE',  ( 0.000000000000000000, 0.000000000000000000, 3.200000000000008171 ) ) ;
#9 = AXIS2_PLACEMENT_3D ( 'NONE', #247, #177, #272 ) ;
#10 = LINE ( 'NONE', #33, #261 ) ;
#11 = COORDINATED_UNIVERSAL_TIME_OFFSET ( 1, 0, .AHEAD. ) ;
#12 = AXIS2_PLACEMENT_3D ( 'NONE', #245, #32, #6 ) ;
#13 =( GEOMETRIC_REPRESENTATION_CONTEXT ( 3 ) GLOBAL_UNCERTAINTY_ASSIGNED_CONTEXT ( ( #136 ) ) GLOBAL_UNIT_ASSIGNED_CONTEXT ( ( #16, #139, #68 ) ) REPRESENTATION_CONTEXT ( 'NONE', 'WORKASPACE' ) );
#14 = COORDINATED_UNIVERSAL_TIME_OFFSET ( 1, 0, .AHEAD. ) ;
#15 = PRODUCT_DEFINITION_SHAPE ( 'NONE', 'NONE',  #220 ) ;
#16 =( LENGTH_UNIT ( ) NAMED_UNIT ( * ) SI_UNIT ( .MILLI., .METRE. ) );
#17 = DATE_AND_TIME ( #229, #45 ) ;
#18 = DIRECTION ( 'NONE',  ( 1.224646799147353207E-16, 1.000000000000000000, -0.000000000000000000 ) ) ;
#19 = DATE_AND_TIME ( #209, #40 ) ;
#20 = CARTESIAN_POINT ( 'NONE',  ( 2.250000000000000000, 2.755455298081544285E-16, 163.0000000000000000 ) ) ;
#21 = ORIENTED_EDGE ( 'NONE', *, *, #303, .T. ) ;
#22 = ORIENTED_EDGE ( 'NONE', *, *, #42, .T. ) ;
#23 = ORIENTED_EDGE ( 'NONE', *, *, #264, .F. ) ;
#24 = EDGE_CURVE ( 'NONE', #94, #233, #189, .T. ) ;
#25 = VERTEX_POINT ( 'NONE', #20 ) ;
#26 = CC_DESIGN_APPROVAL ( #294, ( #55 ) ) ;
#27 = DIRECTION ( 'NONE',  ( 1.000000000000000000, 0.000000000000000000, 0.000000000000000000 ) ) ;
#28 = FACE_OUTER_BOUND ( 'NONE', #300, .T. ) ;
#29 = ORIENTED_EDGE ( 'NONE', *, *, #127, .F. ) ;
#30 = EDGE_CURVE ( 'NONE', #25, #77, #138, .T. ) ;
#31 = PLANE ( 'NONE',  #125 ) ;
#32 = DIRECTION ( 'NONE',  ( -0.000000000000000000, -0.000000000000000000, -1.000000000000000000 ) ) ;
#33 = CARTESIAN_POINT ( 'NONE',  ( -4.000000000000000000, 0.000000000000000000, 3.000000000000000000 ) ) ;
#34 = VERTEX_POINT ( 'NONE', #73 ) ;
#35 = AXIS2_PLACEMENT_3D ( 'NONE', #121, #18, #187 ) ;
#36 = DIRECTION ( 'NONE',  ( -0.000000000000000000, -0.000000000000000000, -1.000000000000000000 ) ) ;
#37 = AXIS2_PLACEMENT_3D ( 'NONE', #183, #92, #251 ) ;
#38 = APPROVAL_ROLE ( '' ) ;
#39 = PERSON_AND_ORGANIZATION ( #126, #101 ) ;
#40 = LOCAL_TIME ( 12, 22, 10.00000000000000000, #62 ) ;
#41 = CARTESIAN_POINT ( 'NONE',  ( 2.449999999999999734, 0.000000000000000000, 3.200000000000008171 ) ) ;
#42 = EDGE_CURVE ( 'NONE', #233, #212, #237, .T. ) ;
#43 = CALENDAR_DATE ( 2022, 7, 7 ) ;
#44 = DIRECTION ( 'NONE',  ( -1.000000000000000000, 0.000000000000000000, 0.000000000000000000 ) ) ;
#45 = LOCAL_TIME ( 12, 22, 10.00000000000000000, #117 ) ;
#46 = VERTEX_POINT ( 'NONE', #165 ) ;
#47 = ORIENTED_EDGE ( 'NONE', *, *, #185, .F. ) ;
#48 = AXIS2_PLACEMENT_3D ( 'NONE', #57, #150, #242 ) ;
#49 = CIRCLE ( 'NONE', #223, 2.250000000000000000 ) ;
#50 = LOCAL_TIME ( 12, 22, 10.00000000000000000, #299 ) ;
#51 = DIRECTION ( 'NONE',  ( -1.000000000000000000, 0.000000000000000000, 0.000000000000000000 ) ) ;
#52 = CIRCLE ( 'NONE', #234, 2.250000000000000000 ) ;
#53 = EDGE_CURVE ( 'NONE', #77, #243, #7, .T. ) ;
#54 = AXIS2_PLACEMENT_3D ( 'NONE', #65, #160, #228 ) ;
#55 = PRODUCT_DEFINITION_FORMATION_WITH_SPECIFIED_SOURCE ( 'LIBOVOLNÝ', '', #163, .NOT_KNOWN. ) ;
#56 = CARTESIAN_POINT ( 'NONE',  ( 0.000000000000000000, 0.000000000000000000, 3.000000000000000000 ) ) ;
#57 = CARTESIAN_POINT ( 'NONE',  ( 0.000000000000000000, 0.000000000000000000, 3.000000000000000000 ) ) ;
#58 = DIRECTION ( 'NONE',  ( 0.000000000000000000, 0.000000000000000000, 1.000000000000000000 ) ) ;
#59 = ORIENTED_EDGE ( 'NONE', *, *, #277, .T. ) ;
#60 = CARTESIAN_POINT ( 'NONE',  ( 0.000000000000000000, 0.000000000000000000, 3.200000000000008171 ) ) ;
#61 = CARTESIAN_POINT ( 'NONE',  ( 2.449999999999999734, 0.000000000000000000, 3.000000000000004441 ) ) ;
#62 = COORDINATED_UNIVERSAL_TIME_OFFSET ( 1, 0, .AHEAD. ) ;
#63 = ADVANCED_FACE ( 'NONE', ( #207 ), #279, .T. ) ;
#64 = DATE_AND_TIME ( #226, #152 ) ;
#65 = CARTESIAN_POINT ( 'NONE',  ( 0.000000000000000000, 0.000000000000000000, 0.000000000000000000 ) ) ;
#66 = APPROVAL_ROLE ( '' ) ;
#67 = ADVANCED_FACE ( 'NONE', ( #28 ), #221, .T. ) ;
#68 =( NAMED_UNIT ( * ) SI_UNIT ( $, .STERADIAN. ) SOLID_ANGLE_UNIT ( ) );
#69 = TOROIDAL_SURFACE ( 'NONE', #110, 2.449999999999999734, 0.2000000000000000111 ) ;
#70 = PERSON_AND_ORGANIZATION ( #126, #101 ) ;
#71 = CARTESIAN_POINT ( 'NONE',  ( 2.250000000000000000, 2.755455298081544285E-16, 163.0000000000000000 ) ) ;
#72 = PERSON_AND_ORGANIZATION ( #126, #101 ) ;
#73 = CARTESIAN_POINT ( 'NONE',  ( -4.000000000000000000, 0.000000000000000000, 0.000000000000000000 ) ) ;
#74 = AXIS2_PLACEMENT_3D ( 'NONE', #83, #173, #268 ) ;
#75 = ORIENTED_EDGE ( 'NONE', *, *, #30, .F. ) ;
#76 = CIRCLE ( 'NONE', #9, 2.449999999999999734 ) ;
#77 = VERTEX_POINT ( 'NONE', #291 ) ;
#78 = ADVANCED_FACE ( 'NONE', ( #199, #86 ), #107, .T. ) ;
#79 = AXIS2_PLACEMENT_3D ( 'NONE', #111, #36, #87 ) ;
#80 = DIRECTION ( 'NONE',  ( 1.000000000000000000, 0.000000000000000000, 0.000000000000000000 ) ) ;
#81 = ORIENTED_EDGE ( 'NONE', *, *, #88, .T. ) ;
#82 = CARTESIAN_POINT ( 'NONE',  ( 0.000000000000000000, 0.000000000000000000, 3.000000000000000000 ) ) ;
#83 = CARTESIAN_POINT ( 'NONE',  ( 0.000000000000000000, 0.000000000000000000, 0.000000000000000000 ) ) ;
#84 = CC_DESIGN_PERSON_AND_ORGANIZATION_ASSIGNMENT ( #96, #275, ( #163 ) ) ;
#85 = ORIENTED_EDGE ( 'NONE', *, *, #258, .T. ) ;
#86 = FACE_OUTER_BOUND ( 'NONE', #171, .T. ) ;
#87 = DIRECTION ( 'NONE',  ( -1.000000000000000000, 0.000000000000000000, 0.000000000000000000 ) ) ;
#88 = EDGE_CURVE ( 'NONE', #77, #233, #304, .T. ) ;
#89 = DATE_TIME_ROLE ( 'creation_date' ) ;
#90 = APPLICATION_PROTOCOL_DEFINITION ( 'international standard', 'config_control_design', 1994, #217 ) ;
#91 = APPROVAL_STATUS ( 'not_yet_approved' ) ;
#92 = DIRECTION ( 'NONE',  ( 0.000000000000000000, 0.000000000000000000, 1.000000000000000000 ) ) ;
#93 = CIRCLE ( 'NONE', #12, 2.449999999999999734 ) ;
#94 = VERTEX_POINT ( 'NONE', #157 ) ;
#95 = CIRCLE ( 'NONE', #259, 2.250000000000000000 ) ;
#96 = PERSON_AND_ORGANIZATION ( #126, #101 ) ;
#97 = ORIENTED_EDGE ( 'NONE', *, *, #127, .T. ) ;
#98 = EDGE_CURVE ( 'NONE', #167, #46, #124, .T. ) ;
#99 = ORIENTED_EDGE ( 'NONE', *, *, #297, .T. ) ;
#100 = EDGE_LOOP ( 'NONE', ( #211, #260 ) ) ;
#101 = ORGANIZATION ( 'NEURÈENÝ', 'NEURÈENÝ', '' ) ;
#102 = ADVANCED_FACE ( 'NONE', ( #130 ), #2, .F. ) ;
#103 = LOCAL_TIME ( 12, 22, 10.00000000000000000, #14 ) ;
#104 = DIRECTION ( 'NONE',  ( 0.000000000000000000, 0.000000000000000000, 1.000000000000000000 ) ) ;
#105 = ORIENTED_EDGE ( 'NONE', *, *, #277, .F. ) ;
#106 = LINE ( 'NONE', #197, #305 ) ;
#107 = PLANE ( 'NONE',  #142 ) ;
#108 = DIRECTION ( 'NONE',  ( 1.000000000000000000, 0.000000000000000000, 0.000000000000000000 ) ) ;
#109 = PRODUCT_RELATED_PRODUCT_CATEGORY ( 'detail', '', ( #163 ) ) ;
#110 = AXIS2_PLACEMENT_3D ( 'NONE', #8, #293, #246 ) ;
#111 = CARTESIAN_POINT ( 'NONE',  ( 0.000000000000000000, 0.000000000000000000, 163.0000000000000000 ) ) ;
#112 = DIRECTION ( 'NONE',  ( 0.000000000000000000, 0.000000000000000000, 1.000000000000000000 ) ) ;
#113 = APPROVAL_DATE_TIME ( #17, #132 ) ;
#114 = EDGE_CURVE ( 'NONE', #212, #243, #93, .T. ) ;
#115 = DATE_AND_TIME ( #232, #103 ) ;
#116 = MECHANICAL_CONTEXT ( 'NONE', #217, 'mechanical' ) ;
#117 = COORDINATED_UNIVERSAL_TIME_OFFSET ( 1, 0, .AHEAD. ) ;
#118 = CC_DESIGN_PERSON_AND_ORGANIZATION_ASSIGNMENT ( #184, #120, ( #220 ) ) ;
#119 = DIRECTION ( 'NONE',  ( 0.000000000000000000, 0.000000000000000000, -1.000000000000000000 ) ) ;
#120 = PERSON_AND_ORGANIZATION_ROLE ( 'creator' ) ;
#121 = CARTESIAN_POINT ( 'NONE',  ( -2.449999999999999734, 3.000384657911015370E-16, 3.200000000000008171 ) ) ;
#122 = EDGE_LOOP ( 'NONE', ( #164, #214, #307, #191 ) ) ;
#123 = ORIENTED_EDGE ( 'NONE', *, *, #30, .T. ) ;
#124 = CIRCLE ( 'NONE', #48, 4.000000000000000000 ) ;
#125 = AXIS2_PLACEMENT_3D ( 'NONE', #170, #172, #153 ) ;
#126 = PERSON ( 'NEURÈENÝ', 'NEURÈENÝ', 'NEURÈENÝ', ('NEURÈENÝ'), ('NEURÈENÝ'), ('NEURÈENÝ') ) ;
#127 = EDGE_CURVE ( 'NONE', #233, #77, #52, .T. ) ;
#128 = EDGE_LOOP ( 'NONE', ( #190, #47, #59, #21 ) ) ;
#129 = FACE_OUTER_BOUND ( 'NONE', #156, .T. ) ;
#130 = FACE_OUTER_BOUND ( 'NONE', #100, .T. ) ;
#131 = FACE_OUTER_BOUND ( 'NONE', #235, .T. ) ;
#132 = APPROVAL ( #137, 'NEURÈENÝ' ) ;
#133 = CARTESIAN_POINT ( 'NONE',  ( 0.000000000000000000, 0.000000000000000000, 3.000000000000000000 ) ) ;
#134 = FACE_OUTER_BOUND ( 'NONE', #236, .T. ) ;
#135 = CIRCLE ( 'NONE', #151, 4.000000000000000000 ) ;
#136 = UNCERTAINTY_MEASURE_WITH_UNIT (LENGTH_MEASURE( 1.000000000000000082E-05 ), #16, 'distance_accuracy_value', 'NONE');
#137 = APPROVAL_STATUS ( 'not_yet_approved' ) ;
#138 = LINE ( 'NONE', #71, #166 ) ;
#139 =( NAMED_UNIT ( * ) PLANE_ANGLE_UNIT ( ) SI_UNIT ( $, .RADIAN. ) );
#140 = APPROVAL_DATE_TIME ( #19, #168 ) ;
#141 = CARTESIAN_POINT ( 'NONE',  ( 0.000000000000000000, 0.000000000000000000, 3.000000000000000000 ) ) ;
#142 = AXIS2_PLACEMENT_3D ( 'NONE', #133, #176, #271 ) ;
#143 = EDGE_LOOP ( 'NONE', ( #270, #265 ) ) ;
#144 = ORIENTED_EDGE ( 'NONE', *, *, #186, .T. ) ;
#145 = AXIS2_PLACEMENT_3D ( 'NONE', #82, #1, #80 ) ;
#146 = APPROVAL_PERSON_ORGANIZATION ( #70, #168, #66 ) ;
#147 = EDGE_CURVE ( 'NONE', #25, #94, #95, .T. ) ;
#148 = VECTOR ( 'NONE', #281, 1000.000000000000000 ) ;
#149 = CARTESIAN_POINT ( 'NONE',  ( 0.000000000000000000, 0.000000000000000000, 3.200000000000008171 ) ) ;
#150 = DIRECTION ( 'NONE',  ( 0.000000000000000000, 0.000000000000000000, 1.000000000000000000 ) ) ;
#151 = AXIS2_PLACEMENT_3D ( 'NONE', #224, #58, #155 ) ;
#152 = LOCAL_TIME ( 12, 22, 10.00000000000000000, #11 ) ;
#153 = DIRECTION ( 'NONE',  ( 1.000000000000000000, 0.000000000000000000, -0.000000000000000000 ) ) ;
#154 = CARTESIAN_POINT ( 'NONE',  ( 0.000000000000000000, 0.000000000000000000, 163.0000000000000000 ) ) ;
#155 = DIRECTION ( 'NONE',  ( 1.000000000000000000, 0.000000000000000000, 0.000000000000000000 ) ) ;
#156 = EDGE_LOOP ( 'NONE', ( #302, #144, #99, #105 ) ) ;
#157 = CARTESIAN_POINT ( 'NONE',  ( -2.250000000000000000, 0.000000000000000000, 163.0000000000000000 ) ) ;
#158 = DIRECTION ( 'NONE',  ( 1.000000000000000000, 0.000000000000000000, 0.000000000000000000 ) ) ;
#159 = APPROVAL_ROLE ( '' ) ;
#160 = DIRECTION ( 'NONE',  ( 0.000000000000000000, 0.000000000000000000, 1.000000000000000000 ) ) ;
#161 = PERSON_AND_ORGANIZATION ( #126, #101 ) ;
#162 = EDGE_LOOP ( 'NONE', ( #85, #301 ) ) ;
#163 = PRODUCT ( '9342', '9342', '', ( #116 ) ) ;
#164 = ORIENTED_EDGE ( 'NONE', *, *, #42, .F. ) ;
#165 = CARTESIAN_POINT ( 'NONE',  ( -4.000000000000000000, 0.000000000000000000, 3.000000000000000000 ) ) ;
#166 = VECTOR ( 'NONE', #210, 1000.000000000000000 ) ;
#167 = VERTEX_POINT ( 'NONE', #194 ) ;
#168 = APPROVAL ( #206, 'NEURÈENÝ' ) ;
#169 = CIRCLE ( 'NONE', #37, 4.000000000000000000 ) ;
#170 = CARTESIAN_POINT ( 'NONE',  ( 0.000000000000000000, 0.000000000000000000, 163.0000000000000000 ) ) ;
#171 = EDGE_LOOP ( 'NONE', ( #298, #175 ) ) ;
#172 = DIRECTION ( 'NONE',  ( 0.000000000000000000, 0.000000000000000000, 1.000000000000000000 ) ) ;
#173 = DIRECTION ( 'NONE',  ( 0.000000000000000000, 0.000000000000000000, 1.000000000000000000 ) ) ;
#174 = APPROVAL_PERSON_ORGANIZATION ( #72, #132, #38 ) ;
#175 = ORIENTED_EDGE ( 'NONE', *, *, #98, .T. ) ;
#176 = DIRECTION ( 'NONE',  ( 0.000000000000000000, 0.000000000000000000, 1.000000000000000000 ) ) ;
#177 = DIRECTION ( 'NONE',  ( -0.000000000000000000, -0.000000000000000000, -1.000000000000000000 ) ) ;
#178 = CARTESIAN_POINT ( 'NONE',  ( 0.000000000000000000, 0.000000000000000000, 163.0000000000000000 ) ) ;
#179 = AXIS2_PLACEMENT_3D ( 'NONE', #60, #198, #108 ) ;
#180 = PERSON_AND_ORGANIZATION_ROLE ( 'classification_officer' ) ;
#181 = TOROIDAL_SURFACE ( 'NONE', #267, 2.449999999999999734, 0.2000000000000000111 ) ;
#182 = DATE_TIME_ROLE ( 'classification_date' ) ;
#183 = CARTESIAN_POINT ( 'NONE',  ( 0.000000000000000000, 0.000000000000000000, 0.000000000000000000 ) ) ;
#184 = PERSON_AND_ORGANIZATION ( #126, #101 ) ;
#185 = EDGE_CURVE ( 'NONE', #46, #167, #241, .T. ) ;
#186 = EDGE_CURVE ( 'NONE', #167, #282, #106, .T. ) ;
#187 = DIRECTION ( 'NONE',  ( -1.000000000000000000, 1.224646799147353207E-16, 0.000000000000000000 ) ) ;
#188 = DATE_AND_TIME ( #43, #50 ) ;
#189 = LINE ( 'NONE', #254, #148 ) ;
#190 = ORIENTED_EDGE ( 'NONE', *, *, #186, .F. ) ;
#191 = ORIENTED_EDGE ( 'NONE', *, *, #114, .F. ) ;
#192 = CC_DESIGN_PERSON_AND_ORGANIZATION_ASSIGNMENT ( #39, #256, ( #55 ) ) ;
#193 = APPLICATION_CONTEXT ( 'configuration controlled 3d designs of mechanical parts and assemblies' ) ;
#194 = CARTESIAN_POINT ( 'NONE',  ( 4.000000000000000000, 4.898587196589412829E-16, 3.000000000000000000 ) ) ;
#195 = CC_DESIGN_DATE_AND_TIME_ASSIGNMENT ( #115, #182, ( #227 ) ) ;
#196 = ORIENTED_EDGE ( 'NONE', *, *, #147, .F. ) ;
#197 = CARTESIAN_POINT ( 'NONE',  ( 4.000000000000000000, 4.898587196589412829E-16, 3.000000000000000000 ) ) ;
#198 = DIRECTION ( 'NONE',  ( 0.000000000000000000, 0.000000000000000000, 1.000000000000000000 ) ) ;
#199 = FACE_BOUND ( 'NONE', #162, .T. ) ;
#200 = ADVANCED_FACE ( 'NONE', ( #129 ), #287, .T. ) ;
#201 = FACE_OUTER_BOUND ( 'NONE', #122, .T. ) ;
#202 = MANIFOLD_SOLID_BREP ( 'Zaoblit1', #263 ) ;
#203 = DIRECTION ( 'NONE',  ( 0.000000000000000000, 0.000000000000000000, 1.000000000000000000 ) ) ;
#204 = SHAPE_DEFINITION_REPRESENTATION ( #15, #5 ) ;
#205 = CC_DESIGN_SECURITY_CLASSIFICATION ( #227, ( #55 ) ) ;
#206 = APPROVAL_STATUS ( 'not_yet_approved' ) ;
#207 = FACE_OUTER_BOUND ( 'NONE', #128, .T. ) ;
#208 = AXIS2_PLACEMENT_3D ( 'NONE', #41, #230, #119 ) ;
#209 = CALENDAR_DATE ( 2022, 7, 7 ) ;
#210 = DIRECTION ( 'NONE',  ( -0.000000000000000000, -0.000000000000000000, -1.000000000000000000 ) ) ;
#211 = ORIENTED_EDGE ( 'NONE', *, *, #303, .F. ) ;
#212 = VERTEX_POINT ( 'NONE', #215 ) ;
#213 = CC_DESIGN_PERSON_AND_ORGANIZATION_ASSIGNMENT ( #161, #252, ( #55 ) ) ;
#214 = ORIENTED_EDGE ( 'NONE', *, *, #88, .F. ) ;
#215 = CARTESIAN_POINT ( 'NONE',  ( -2.449999999999999734, 3.000384657911015370E-16, 3.000000000000004441 ) ) ;
#216 = DIRECTION ( 'NONE',  ( -0.000000000000000000, -0.000000000000000000, -1.000000000000000000 ) ) ;
#217 = APPLICATION_CONTEXT ( 'configuration controlled 3d designs of mechanical parts and assemblies' ) ;
#218 = ORIENTED_EDGE ( 'NONE', *, *, #258, .F. ) ;
#219 = DIRECTION ( 'NONE',  ( 0.000000000000000000, 0.000000000000000000, 1.000000000000000000 ) ) ;
#220 = PRODUCT_DEFINITION ( 'NEZNÁMÝ', '', #55, #231 ) ;
#221 = CYLINDRICAL_SURFACE ( 'NONE', #274, 2.250000000000000000 ) ;
#222 = DIRECTION ( 'NONE',  ( -0.000000000000000000, -0.000000000000000000, -1.000000000000000000 ) ) ;
#223 = AXIS2_PLACEMENT_3D ( 'NONE', #178, #203, #158 ) ;
#224 = CARTESIAN_POINT ( 'NONE',  ( 0.000000000000000000, 0.000000000000000000, 0.000000000000000000 ) ) ;
#225 = ADVANCED_FACE ( 'NONE', ( #244 ), #31, .T. ) ;
#226 = CALENDAR_DATE ( 2022, 7, 7 ) ;
#227 = SECURITY_CLASSIFICATION ( '', '', #248 ) ;
#228 = DIRECTION ( 'NONE',  ( 1.000000000000000000, 0.000000000000000000, 0.000000000000000000 ) ) ;
#229 = CALENDAR_DATE ( 2022, 7, 7 ) ;
#230 = DIRECTION ( 'NONE',  ( 0.000000000000000000, -1.000000000000000000, 0.000000000000000000 ) ) ;
#231 = DESIGN_CONTEXT ( 'detailed design', #193, 'design' ) ;
#232 = CALENDAR_DATE ( 2022, 7, 7 ) ;
#233 = VERTEX_POINT ( 'NONE', #285 ) ;
#234 = AXIS2_PLACEMENT_3D ( 'NONE', #149, #219, #4 ) ;
#235 = EDGE_LOOP ( 'NONE', ( #196, #123, #81, #286 ) ) ;
#236 = EDGE_LOOP ( 'NONE', ( #29, #22, #218, #3 ) ) ;
#237 = CIRCLE ( 'NONE', #35, 0.2000000000000000944 ) ;
#238 = CC_DESIGN_APPROVAL ( #132, ( #227 ) ) ;
#239 = ADVANCED_FACE ( 'NONE', ( #131 ), #262, .T. ) ;
#240 = DIRECTION ( 'NONE',  ( -0.000000000000000000, -0.000000000000000000, -1.000000000000000000 ) ) ;
#241 = CIRCLE ( 'NONE', #145, 4.000000000000000000 ) ;
#242 = DIRECTION ( 'NONE',  ( 1.000000000000000000, 0.000000000000000000, 0.000000000000000000 ) ) ;
#243 = VERTEX_POINT ( 'NONE', #61 ) ;
#244 = FACE_OUTER_BOUND ( 'NONE', #143, .T. ) ;
#245 = CARTESIAN_POINT ( 'NONE',  ( 0.000000000000000000, 0.000000000000000000, 3.000000000000000000 ) ) ;
#246 = DIRECTION ( 'NONE',  ( 1.000000000000000000, 0.000000000000000000, 0.000000000000000000 ) ) ;
#247 = CARTESIAN_POINT ( 'NONE',  ( 0.000000000000000000, 0.000000000000000000, 3.000000000000000000 ) ) ;
#248 = SECURITY_CLASSIFICATION_LEVEL ( 'unclassified' ) ;
#249 = APPROVAL_DATE_TIME ( #188, #294 ) ;
#250 = ADVANCED_FACE ( 'NONE', ( #201 ), #69, .F. ) ;
#251 = DIRECTION ( 'NONE',  ( 1.000000000000000000, 0.000000000000000000, 0.000000000000000000 ) ) ;
#252 = PERSON_AND_ORGANIZATION_ROLE ( 'creator' ) ;
#253 = AXIS2_PLACEMENT_3D ( 'NONE', #56, #266, #51 ) ;
#254 = CARTESIAN_POINT ( 'NONE',  ( -2.250000000000000000, 0.000000000000000000, 163.0000000000000000 ) ) ;
#255 = CC_DESIGN_DATE_AND_TIME_ASSIGNMENT ( #64, #89, ( #220 ) ) ;
#256 = PERSON_AND_ORGANIZATION_ROLE ( 'design_supplier' ) ;
#257 = DIRECTION ( 'NONE',  ( -0.000000000000000000, -0.000000000000000000, -1.000000000000000000 ) ) ;
#258 = EDGE_CURVE ( 'NONE', #243, #212, #76, .T. ) ;
#259 = AXIS2_PLACEMENT_3D ( 'NONE', #306, #104, #27 ) ;
#260 = ORIENTED_EDGE ( 'NONE', *, *, #297, .F. ) ;
#261 = VECTOR ( 'NONE', #222, 1000.000000000000000 ) ;
#262 = CYLINDRICAL_SURFACE ( 'NONE', #79, 2.250000000000000000 ) ;
#263 = CLOSED_SHELL ( 'NONE', ( #292, #239, #200, #63, #78, #102, #67, #225, #250 ) ) ;
#264 = EDGE_CURVE ( 'NONE', #94, #25, #49, .T. ) ;
#265 = ORIENTED_EDGE ( 'NONE', *, *, #147, .T. ) ;
#266 = DIRECTION ( 'NONE',  ( -0.000000000000000000, -0.000000000000000000, -1.000000000000000000 ) ) ;
#267 = AXIS2_PLACEMENT_3D ( 'NONE', #273, #112, #269 ) ;
#268 = DIRECTION ( 'NONE',  ( 1.000000000000000000, 0.000000000000000000, -0.000000000000000000 ) ) ;
#269 = DIRECTION ( 'NONE',  ( 1.000000000000000000, 0.000000000000000000, 0.000000000000000000 ) ) ;
#270 = ORIENTED_EDGE ( 'NONE', *, *, #264, .T. ) ;
#271 = DIRECTION ( 'NONE',  ( 1.000000000000000000, 0.000000000000000000, -0.000000000000000000 ) ) ;
#272 = DIRECTION ( 'NONE',  ( 1.000000000000000000, 0.000000000000000000, 0.000000000000000000 ) ) ;
#273 = CARTESIAN_POINT ( 'NONE',  ( 0.000000000000000000, 0.000000000000000000, 3.200000000000008171 ) ) ;
#274 = AXIS2_PLACEMENT_3D ( 'NONE', #154, #216, #288 ) ;
#275 = PERSON_AND_ORGANIZATION_ROLE ( 'design_owner' ) ;
#276 = PERSON_AND_ORGANIZATION ( #126, #101 ) ;
#277 = EDGE_CURVE ( 'NONE', #46, #34, #10, .T. ) ;
#278 = APPROVAL_PERSON_ORGANIZATION ( #276, #294, #159 ) ;
#279 = CYLINDRICAL_SURFACE ( 'NONE', #289, 4.000000000000000000 ) ;
#280 = PERSON_AND_ORGANIZATION ( #126, #101 ) ;
#281 = DIRECTION ( 'NONE',  ( -0.000000000000000000, -0.000000000000000000, -1.000000000000000000 ) ) ;
#282 = VERTEX_POINT ( 'NONE', #295 ) ;
#283 = CC_DESIGN_APPROVAL ( #168, ( #220 ) ) ;
#284 = ORIENTED_EDGE ( 'NONE', *, *, #24, .T. ) ;
#285 = CARTESIAN_POINT ( 'NONE',  ( -2.250000000000000000, 0.000000000000000000, 3.200000000000008171 ) ) ;
#286 = ORIENTED_EDGE ( 'NONE', *, *, #24, .F. ) ;
#287 = CYLINDRICAL_SURFACE ( 'NONE', #253, 4.000000000000000000 ) ;
#288 = DIRECTION ( 'NONE',  ( -1.000000000000000000, 0.000000000000000000, 0.000000000000000000 ) ) ;
#289 = AXIS2_PLACEMENT_3D ( 'NONE', #141, #257, #44 ) ;
#290 = CC_DESIGN_PERSON_AND_ORGANIZATION_ASSIGNMENT ( #280, #180, ( #227 ) ) ;
#291 = CARTESIAN_POINT ( 'NONE',  ( 2.250000000000000000, 2.755455298081544285E-16, 3.200000000000008171 ) ) ;
#292 = ADVANCED_FACE ( 'NONE', ( #134 ), #181, .F. ) ;
#293 = DIRECTION ( 'NONE',  ( 0.000000000000000000, 0.000000000000000000, 1.000000000000000000 ) ) ;
#294 = APPROVAL ( #91, 'NEURÈENÝ' ) ;
#295 = CARTESIAN_POINT ( 'NONE',  ( 4.000000000000000000, 4.898587196589412829E-16, 0.000000000000000000 ) ) ;
#296 = APPLICATION_PROTOCOL_DEFINITION ( 'international standard', 'config_control_design', 1994, #193 ) ;
#297 = EDGE_CURVE ( 'NONE', #282, #34, #135, .T. ) ;
#298 = ORIENTED_EDGE ( 'NONE', *, *, #185, .T. ) ;
#299 = COORDINATED_UNIVERSAL_TIME_OFFSET ( 1, 0, .AHEAD. ) ;
#300 = EDGE_LOOP ( 'NONE', ( #75, #23, #284, #97 ) ) ;
#301 = ORIENTED_EDGE ( 'NONE', *, *, #114, .T. ) ;
#302 = ORIENTED_EDGE ( 'NONE', *, *, #98, .F. ) ;
#303 = EDGE_CURVE ( 'NONE', #34, #282, #169, .T. ) ;
#304 = CIRCLE ( 'NONE', #179, 2.250000000000000000 ) ;
#305 = VECTOR ( 'NONE', #240, 1000.000000000000000 ) ;
#306 = CARTESIAN_POINT ( 'NONE',  ( 0.000000000000000000, 0.000000000000000000, 163.0000000000000000 ) ) ;
#307 = ORIENTED_EDGE ( 'NONE', *, *, #53, .T. ) ;
ENDSEC;
END-ISO-10303-21;
