ISO-10303-21;
HEADER;
FILE_DESCRIPTION (( 'STEP AP203' ),
    '1' );
FILE_NAME ('c96c.STEP',
    '2022-07-07T10:25:07',
    ( '' ),
    ( '' ),
    'SwSTEP 2.0',
    'SolidWorks 2019',
    '' );
FILE_SCHEMA (( 'CONFIG_CONTROL_DESIGN' ));
ENDSEC;

DATA;
#1 = CC_DESIGN_APPROVAL ( #262, ( #134 ) ) ;
#2 = EDGE_LOOP ( 'NONE', ( #48, #302, #234, #270 ) ) ;
#3 = LINE ( 'NONE', #260, #16 ) ;
#4 = ADVANCED_FACE ( 'NONE', ( #306 ), #305, .T. ) ;
#5 = DIRECTION ( 'NONE',  ( 1.000000000000000000, 0.000000000000000000, -0.000000000000000000 ) ) ;
#6 = DIRECTION ( 'NONE',  ( 1.000000000000000000, 0.000000000000000000, 0.000000000000000000 ) ) ;
#7 = CARTESIAN_POINT ( 'NONE',  ( -4.000000000000000000, 0.000000000000000000, 3.000000000000000000 ) ) ;
#8 = CC_DESIGN_PERSON_AND_ORGANIZATION_ASSIGNMENT ( #109, #85, ( #134 ) ) ;
#9 = AXIS2_PLACEMENT_3D ( 'NONE', #44, #182, #42 ) ;
#10 = DIRECTION ( 'NONE',  ( 1.000000000000000000, 0.000000000000000000, 0.000000000000000000 ) ) ;
#11 = CARTESIAN_POINT ( 'NONE',  ( 0.000000000000000000, 0.000000000000000000, 3.000000000000000000 ) ) ;
#12 = AXIS2_PLACEMENT_3D ( 'NONE', #11, #238, #293 ) ;
#13 = APPROVAL_DATE_TIME ( #124, #262 ) ;
#14 = EDGE_CURVE ( 'NONE', #279, #25, #133, .T. ) ;
#15 = CALENDAR_DATE ( 2022, 7, 7 ) ;
#16 = VECTOR ( 'NONE', #159, 1000.000000000000000 ) ;
#17 = PERSON_AND_ORGANIZATION_ROLE ( 'classification_officer' ) ;
#18 = ORIENTED_EDGE ( 'NONE', *, *, #277, .T. ) ;
#19 = AXIS2_PLACEMENT_3D ( 'NONE', #96, #72, #193 ) ;
#20 = EDGE_LOOP ( 'NONE', ( #282, #59 ) ) ;
#21 = EDGE_LOOP ( 'NONE', ( #66, #84, #140, #176 ) ) ;
#22 = ORIENTED_EDGE ( 'NONE', *, *, #188, .F. ) ;
#23 = ORGANIZATION ( 'NEURÈENÝ', 'NEURÈENÝ', '' ) ;
#24 = PLANE ( 'NONE',  #177 ) ;
#25 = VERTEX_POINT ( 'NONE', #206 ) ;
#26 = CARTESIAN_POINT ( 'NONE',  ( 0.000000000000000000, 0.000000000000000000, 3.000000000000000000 ) ) ;
#27 = DIRECTION ( 'NONE',  ( -0.000000000000000000, -0.000000000000000000, -1.000000000000000000 ) ) ;
#28 = EDGE_CURVE ( 'NONE', #86, #151, #207, .T. ) ;
#29 = FACE_OUTER_BOUND ( 'NONE', #179, .T. ) ;
#30 = DESIGN_CONTEXT ( 'detailed design', #164, 'design' ) ;
#31 = AXIS2_PLACEMENT_3D ( 'NONE', #65, #137, #212 ) ;
#32 = FACE_OUTER_BOUND ( 'NONE', #2, .T. ) ;
#33 = EDGE_CURVE ( 'NONE', #130, #151, #184, .T. ) ;
#34 = CARTESIAN_POINT ( 'NONE',  ( -2.200000000000000178, 2.694222958124177006E-16, 3.199999999999980638 ) ) ;
#35 = PRODUCT ( 'c96c', 'c96c', '', ( #253 ) ) ;
#36 = ORIENTED_EDGE ( 'NONE', *, *, #33, .T. ) ;
#37 = PERSON_AND_ORGANIZATION ( #217, #23 ) ;
#38 = CC_DESIGN_PERSON_AND_ORGANIZATION_ASSIGNMENT ( #83, #178, ( #35 ) ) ;
#39 = SECURITY_CLASSIFICATION ( '', '', #125 ) ;
#40 = PERSON_AND_ORGANIZATION ( #217, #23 ) ;
#41 = EDGE_LOOP ( 'NONE', ( #231, #95 ) ) ;
#42 = DIRECTION ( 'NONE',  ( 1.000000000000000000, 0.000000000000000000, 0.000000000000000000 ) ) ;
#43 = AXIS2_PLACEMENT_3D ( 'NONE', #189, #123, #289 ) ;
#44 = CARTESIAN_POINT ( 'NONE',  ( 0.000000000000000000, 0.000000000000000000, 3.199999999999980638 ) ) ;
#45 = ORIENTED_EDGE ( 'NONE', *, *, #64, .F. ) ;
#46 = CIRCLE ( 'NONE', #121, 4.000000000000000000 ) ;
#47 = DIRECTION ( 'NONE',  ( 0.000000000000000000, -1.000000000000000000, 0.000000000000000000 ) ) ;
#48 = ORIENTED_EDGE ( 'NONE', *, *, #14, .F. ) ;
#49 = CYLINDRICAL_SURFACE ( 'NONE', #148, 2.000000000000000000 ) ;
#50 = CYLINDRICAL_SURFACE ( 'NONE', #287, 4.000000000000000000 ) ;
#51 = CARTESIAN_POINT ( 'NONE',  ( 2.000000000000000000, 2.449293598294706414E-16, 803.0000000000000000 ) ) ;
#52 = CC_DESIGN_APPROVAL ( #296, ( #129 ) ) ;
#53 = DIRECTION ( 'NONE',  ( 1.000000000000000000, 0.000000000000000000, 0.000000000000000000 ) ) ;
#54 = AXIS2_PLACEMENT_3D ( 'NONE', #214, #290, #6 ) ;
#55 = FACE_OUTER_BOUND ( 'NONE', #21, .T. ) ;
#56 = APPROVAL_STATUS ( 'not_yet_approved' ) ;
#57 = VERTEX_POINT ( 'NONE', #183 ) ;
#58 = CARTESIAN_POINT ( 'NONE',  ( 0.000000000000000000, 0.000000000000000000, 0.000000000000000000 ) ) ;
#59 = ORIENTED_EDGE ( 'NONE', *, *, #88, .F. ) ;
#60 = PERSON_AND_ORGANIZATION ( #217, #23 ) ;
#61 = APPROVAL_PERSON_ORGANIZATION ( #198, #97, #80 ) ;
#62 =( NAMED_UNIT ( * ) PLANE_ANGLE_UNIT ( ) SI_UNIT ( $, .RADIAN. ) );
#63 = ORIENTED_EDGE ( 'NONE', *, *, #188, .T. ) ;
#64 = EDGE_CURVE ( 'NONE', #160, #25, #135, .T. ) ;
#65 = CARTESIAN_POINT ( 'NONE',  ( 0.000000000000000000, 0.000000000000000000, 803.0000000000000000 ) ) ;
#66 = ORIENTED_EDGE ( 'NONE', *, *, #215, .F. ) ;
#67 = PRODUCT_DEFINITION_SHAPE ( 'NONE', 'NONE',  #134 ) ;
#68 = DIRECTION ( 'NONE',  ( 1.000000000000000000, 0.000000000000000000, -0.000000000000000000 ) ) ;
#69 = CARTESIAN_POINT ( 'NONE',  ( 0.000000000000000000, 0.000000000000000000, 3.000000000000000000 ) ) ;
#70 = CIRCLE ( 'NONE', #31, 2.000000000000000000 ) ;
#71 = DIRECTION ( 'NONE',  ( -0.000000000000000000, -0.000000000000000000, -1.000000000000000000 ) ) ;
#72 = DIRECTION ( 'NONE',  ( 0.000000000000000000, 0.000000000000000000, 1.000000000000000000 ) ) ;
#73 = DIRECTION ( 'NONE',  ( 0.000000000000000000, 0.000000000000000000, 1.000000000000000000 ) ) ;
#74 = CARTESIAN_POINT ( 'NONE',  ( 4.000000000000000000, 4.898587196589412829E-16, 0.000000000000000000 ) ) ;
#75 = UNCERTAINTY_MEASURE_WITH_UNIT (LENGTH_MEASURE( 1.000000000000000082E-05 ), #251, 'distance_accuracy_value', 'NONE');
#76 = CARTESIAN_POINT ( 'NONE',  ( 0.000000000000000000, 0.000000000000000000, 3.000000000000000000 ) ) ;
#77 = DIRECTION ( 'NONE',  ( -0.000000000000000000, -0.000000000000000000, -1.000000000000000000 ) ) ;
#78 = ADVANCED_FACE ( 'NONE', ( #132, #233 ), #24, .T. ) ;
#79 = APPROVAL_STATUS ( 'not_yet_approved' ) ;
#80 = APPROVAL_ROLE ( '' ) ;
#81 = CC_DESIGN_PERSON_AND_ORGANIZATION_ASSIGNMENT ( #60, #250, ( #129 ) ) ;
#82 = DIRECTION ( 'NONE',  ( 1.000000000000000000, 0.000000000000000000, 0.000000000000000000 ) ) ;
#83 = PERSON_AND_ORGANIZATION ( #217, #23 ) ;
#84 = ORIENTED_EDGE ( 'NONE', *, *, #167, .F. ) ;
#85 = PERSON_AND_ORGANIZATION_ROLE ( 'creator' ) ;
#86 = VERTEX_POINT ( 'NONE', #112 ) ;
#87 = TOROIDAL_SURFACE ( 'NONE', #19, 2.200000000000000178, 0.2000000000000000111 ) ;
#88 = EDGE_CURVE ( 'NONE', #151, #86, #46, .T. ) ;
#89 = DATE_AND_TIME ( #248, #221 ) ;
#90 = CARTESIAN_POINT ( 'NONE',  ( 0.000000000000000000, 0.000000000000000000, 3.000000000000000000 ) ) ;
#91 = CARTESIAN_POINT ( 'NONE',  ( 4.000000000000000000, 4.898587196589412829E-16, 3.000000000000000000 ) ) ;
#92 = CARTESIAN_POINT ( 'NONE',  ( 2.200000000000000178, 0.000000000000000000, 3.199999999999980638 ) ) ;
#93 = ORIENTED_EDGE ( 'NONE', *, *, #28, .T. ) ;
#94 = SHAPE_DEFINITION_REPRESENTATION ( #67, #202 ) ;
#95 = ORIENTED_EDGE ( 'NONE', *, *, #122, .T. ) ;
#96 = CARTESIAN_POINT ( 'NONE',  ( 0.000000000000000000, 0.000000000000000000, 3.199999999999980638 ) ) ;
#97 = APPROVAL ( #297, 'NEURÈENÝ' ) ;
#98 = DIRECTION ( 'NONE',  ( 0.000000000000000000, 0.000000000000000000, 1.000000000000000000 ) ) ;
#99 = CARTESIAN_POINT ( 'NONE',  ( -2.200000000000000178, 2.694222958124177006E-16, 2.999999999999990674 ) ) ;
#100 = VECTOR ( 'NONE', #258, 1000.000000000000000 ) ;
#101 = DIRECTION ( 'NONE',  ( -1.000000000000000000, 0.000000000000000000, 0.000000000000000000 ) ) ;
#102 = DIRECTION ( 'NONE',  ( -1.000000000000000000, 0.000000000000000000, 0.000000000000000000 ) ) ;
#103 = APPROVAL_ROLE ( '' ) ;
#104 = DATE_AND_TIME ( #15, #216 ) ;
#105 = AXIS2_PLACEMENT_3D ( 'NONE', #265, #98, #245 ) ;
#106 = VERTEX_POINT ( 'NONE', #208 ) ;
#107 = APPLICATION_PROTOCOL_DEFINITION ( 'international standard', 'config_control_design', 1994, #191 ) ;
#108 = VERTEX_POINT ( 'NONE', #307 ) ;
#109 = PERSON_AND_ORGANIZATION ( #217, #23 ) ;
#110 = EDGE_LOOP ( 'NONE', ( #45, #172, #113, #136 ) ) ;
#111 = DIRECTION ( 'NONE',  ( -1.000000000000000000, 0.000000000000000000, 0.000000000000000000 ) ) ;
#112 = CARTESIAN_POINT ( 'NONE',  ( -4.000000000000000000, 0.000000000000000000, 0.000000000000000000 ) ) ;
#113 = ORIENTED_EDGE ( 'NONE', *, *, #281, .F. ) ;
#114 = AXIS2_PLACEMENT_3D ( 'NONE', #34, #166, #288 ) ;
#115 = DIRECTION ( 'NONE',  ( -0.000000000000000000, -0.000000000000000000, -1.000000000000000000 ) ) ;
#116 = EDGE_LOOP ( 'NONE', ( #63, #174 ) ) ;
#117 = EDGE_CURVE ( 'NONE', #25, #57, #158, .T. ) ;
#118 = AXIS2_PLACEMENT_3D ( 'NONE', #284, #283, #209 ) ;
#119 = DIRECTION ( 'NONE',  ( -0.000000000000000000, -0.000000000000000000, -1.000000000000000000 ) ) ;
#120 = CYLINDRICAL_SURFACE ( 'NONE', #246, 2.000000000000000000 ) ;
#121 = AXIS2_PLACEMENT_3D ( 'NONE', #161, #162, #259 ) ;
#122 = EDGE_CURVE ( 'NONE', #279, #106, #70, .T. ) ;
#123 = DIRECTION ( 'NONE',  ( 0.000000000000000000, 0.000000000000000000, 1.000000000000000000 ) ) ;
#124 = DATE_AND_TIME ( #199, #292 ) ;
#125 = SECURITY_CLASSIFICATION_LEVEL ( 'unclassified' ) ;
#126 = ORIENTED_EDGE ( 'NONE', *, *, #281, .T. ) ;
#127 = EDGE_CURVE ( 'NONE', #106, #160, #3, .T. ) ;
#128 = APPROVAL_ROLE ( '' ) ;
#129 = PRODUCT_DEFINITION_FORMATION_WITH_SPECIFIED_SOURCE ( 'LIBOVOLNÝ', '', #35, .NOT_KNOWN. ) ;
#130 = VERTEX_POINT ( 'NONE', #254 ) ;
#131 = MANIFOLD_SOLID_BREP ( 'Zaoblit1', #232 ) ;
#132 = FACE_BOUND ( 'NONE', #228, .T. ) ;
#133 = LINE ( 'NONE', #186, #100 ) ;
#134 = PRODUCT_DEFINITION ( 'NEZNÁMÝ', '', #129, #30 ) ;
#135 = CIRCLE ( 'NONE', #9, 2.000000000000000000 ) ;
#136 = ORIENTED_EDGE ( 'NONE', *, *, #117, .F. ) ;
#137 = DIRECTION ( 'NONE',  ( 0.000000000000000000, 0.000000000000000000, 1.000000000000000000 ) ) ;
#138 = CIRCLE ( 'NONE', #12, 4.000000000000000000 ) ;
#139 = ADVANCED_FACE ( 'NONE', ( #55 ), #243, .F. ) ;
#140 = ORIENTED_EDGE ( 'NONE', *, *, #117, .T. ) ;
#141 = DIRECTION ( 'NONE',  ( -0.000000000000000000, -0.000000000000000000, -1.000000000000000000 ) ) ;
#142 = DIRECTION ( 'NONE',  ( 1.000000000000000000, 0.000000000000000000, -0.000000000000000000 ) ) ;
#143 = CIRCLE ( 'NONE', #114, 0.2000000000000000944 ) ;
#144 = CIRCLE ( 'NONE', #261, 2.200000000000000178 ) ;
#145 = FACE_OUTER_BOUND ( 'NONE', #201, .T. ) ;
#146 = FACE_OUTER_BOUND ( 'NONE', #110, .T. ) ;
#147 = PLANE ( 'NONE',  #153 ) ;
#148 = AXIS2_PLACEMENT_3D ( 'NONE', #218, #141, #286 ) ;
#149 = ADVANCED_FACE ( 'NONE', ( #192 ), #147, .T. ) ;
#150 = APPROVAL_DATE_TIME ( #227, #296 ) ;
#151 = VERTEX_POINT ( 'NONE', #74 ) ;
#152 = COORDINATED_UNIVERSAL_TIME_OFFSET ( 1, 0, .AHEAD. ) ;
#153 = AXIS2_PLACEMENT_3D ( 'NONE', #264, #73, #5 ) ;
#154 = CALENDAR_DATE ( 2022, 7, 7 ) ;
#155 = CIRCLE ( 'NONE', #194, 2.000000000000000000 ) ;
#156 = CC_DESIGN_APPROVAL ( #97, ( #39 ) ) ;
#157 = ADVANCED_FACE ( 'NONE', ( #145 ), #50, .T. ) ;
#158 = CIRCLE ( 'NONE', #219, 0.2000000000000000944 ) ;
#159 = DIRECTION ( 'NONE',  ( -0.000000000000000000, -0.000000000000000000, -1.000000000000000000 ) ) ;
#160 = VERTEX_POINT ( 'NONE', #220 ) ;
#161 = CARTESIAN_POINT ( 'NONE',  ( 0.000000000000000000, 0.000000000000000000, 0.000000000000000000 ) ) ;
#162 = DIRECTION ( 'NONE',  ( 0.000000000000000000, 0.000000000000000000, 1.000000000000000000 ) ) ;
#163 = DIRECTION ( 'NONE',  ( 0.000000000000000000, 0.000000000000000000, 1.000000000000000000 ) ) ;
#164 = APPLICATION_CONTEXT ( 'configuration controlled 3d designs of mechanical parts and assemblies' ) ;
#165 = CARTESIAN_POINT ( 'NONE',  ( 0.000000000000000000, 0.000000000000000000, 803.0000000000000000 ) ) ;
#166 = DIRECTION ( 'NONE',  ( 1.224646799147353207E-16, 1.000000000000000000, -0.000000000000000000 ) ) ;
#167 = EDGE_CURVE ( 'NONE', #25, #160, #275, .T. ) ;
#168 =( GEOMETRIC_REPRESENTATION_CONTEXT ( 3 ) GLOBAL_UNCERTAINTY_ASSIGNED_CONTEXT ( ( #75 ) ) GLOBAL_UNIT_ASSIGNED_CONTEXT ( ( #251, #62, #301 ) ) REPRESENTATION_CONTEXT ( 'NONE', 'WORKASPACE' ) );
#169 = DIRECTION ( 'NONE',  ( 0.000000000000000000, 0.000000000000000000, 1.000000000000000000 ) ) ;
#170 = LINE ( 'NONE', #7, #256 ) ;
#171 = ADVANCED_FACE ( 'NONE', ( #32 ), #49, .T. ) ;
#172 = ORIENTED_EDGE ( 'NONE', *, *, #215, .T. ) ;
#173 = COORDINATED_UNIVERSAL_TIME_OFFSET ( 1, 0, .AHEAD. ) ;
#174 = ORIENTED_EDGE ( 'NONE', *, *, #229, .T. ) ;
#175 = COORDINATED_UNIVERSAL_TIME_OFFSET ( 1, 0, .AHEAD. ) ;
#176 = ORIENTED_EDGE ( 'NONE', *, *, #277, .F. ) ;
#177 = AXIS2_PLACEMENT_3D ( 'NONE', #69, #163, #68 ) ;
#178 = PERSON_AND_ORGANIZATION_ROLE ( 'design_owner' ) ;
#179 = EDGE_LOOP ( 'NONE', ( #200, #187, #204, #236 ) ) ;
#180 = COORDINATED_UNIVERSAL_TIME_OFFSET ( 1, 0, .AHEAD. ) ;
#181 = AXIS2_PLACEMENT_3D ( 'NONE', #58, #203, #82 ) ;
#182 = DIRECTION ( 'NONE',  ( 0.000000000000000000, 0.000000000000000000, 1.000000000000000000 ) ) ;
#183 = CARTESIAN_POINT ( 'NONE',  ( 2.200000000000000178, 0.000000000000000000, 2.999999999999990674 ) ) ;
#184 = LINE ( 'NONE', #91, #272 ) ;
#185 = APPROVAL_PERSON_ORGANIZATION ( #40, #262, #128 ) ;
#186 = CARTESIAN_POINT ( 'NONE',  ( 2.000000000000000000, 2.449293598294706414E-16, 803.0000000000000000 ) ) ;
#187 = ORIENTED_EDGE ( 'NONE', *, *, #14, .T. ) ;
#188 = EDGE_CURVE ( 'NONE', #108, #130, #239, .T. ) ;
#189 = CARTESIAN_POINT ( 'NONE',  ( 0.000000000000000000, 0.000000000000000000, 3.199999999999980638 ) ) ;
#190 = CARTESIAN_POINT ( 'NONE',  ( 0.000000000000000000, 0.000000000000000000, 0.000000000000000000 ) ) ;
#191 = APPLICATION_CONTEXT ( 'configuration controlled 3d designs of mechanical parts and assemblies' ) ;
#192 = FACE_OUTER_BOUND ( 'NONE', #41, .T. ) ;
#193 = DIRECTION ( 'NONE',  ( 1.000000000000000000, 0.000000000000000000, 0.000000000000000000 ) ) ;
#194 = AXIS2_PLACEMENT_3D ( 'NONE', #165, #213, #53 ) ;
#195 = PLANE ( 'NONE',  #280 ) ;
#196 = ADVANCED_FACE ( 'NONE', ( #242 ), #195, .F. ) ;
#197 = PERSON_AND_ORGANIZATION ( #217, #23 ) ;
#198 = PERSON_AND_ORGANIZATION ( #217, #23 ) ;
#199 = CALENDAR_DATE ( 2022, 7, 7 ) ;
#200 = ORIENTED_EDGE ( 'NONE', *, *, #122, .F. ) ;
#201 = EDGE_LOOP ( 'NONE', ( #300, #22, #257, #93 ) ) ;
#202 = ADVANCED_BREP_SHAPE_REPRESENTATION ( 'c96c', ( #131, #181 ), #168 ) ;
#203 = DIRECTION ( 'NONE',  ( 0.000000000000000000, 0.000000000000000000, 1.000000000000000000 ) ) ;
#204 = ORIENTED_EDGE ( 'NONE', *, *, #167, .T. ) ;
#205 = CC_DESIGN_PERSON_AND_ORGANIZATION_ASSIGNMENT ( #247, #271, ( #129 ) ) ;
#206 = CARTESIAN_POINT ( 'NONE',  ( 2.000000000000000000, 2.449293598294706414E-16, 3.199999999999980638 ) ) ;
#207 = CIRCLE ( 'NONE', #118, 4.000000000000000000 ) ;
#208 = CARTESIAN_POINT ( 'NONE',  ( -2.000000000000000000, 0.000000000000000000, 803.0000000000000000 ) ) ;
#209 = DIRECTION ( 'NONE',  ( 1.000000000000000000, 0.000000000000000000, 0.000000000000000000 ) ) ;
#210 = CC_DESIGN_SECURITY_CLASSIFICATION ( #39, ( #129 ) ) ;
#211 = CC_DESIGN_DATE_AND_TIME_ASSIGNMENT ( #226, #268, ( #134 ) ) ;
#212 = DIRECTION ( 'NONE',  ( 1.000000000000000000, 0.000000000000000000, 0.000000000000000000 ) ) ;
#213 = DIRECTION ( 'NONE',  ( 0.000000000000000000, 0.000000000000000000, 1.000000000000000000 ) ) ;
#214 = CARTESIAN_POINT ( 'NONE',  ( 0.000000000000000000, 0.000000000000000000, 3.199999999999980638 ) ) ;
#215 = EDGE_CURVE ( 'NONE', #160, #298, #143, .T. ) ;
#216 = LOCAL_TIME ( 12, 25, 7.000000000000000000, #224 ) ;
#217 = PERSON ( 'NEURÈENÝ', 'NEURÈENÝ', 'NEURÈENÝ', ('NEURÈENÝ'), ('NEURÈENÝ'), ('NEURÈENÝ') ) ;
#218 = CARTESIAN_POINT ( 'NONE',  ( 0.000000000000000000, 0.000000000000000000, 803.0000000000000000 ) ) ;
#219 = AXIS2_PLACEMENT_3D ( 'NONE', #92, #47, #278 ) ;
#220 = CARTESIAN_POINT ( 'NONE',  ( -2.000000000000000000, 0.000000000000000000, 3.199999999999980638 ) ) ;
#221 = LOCAL_TIME ( 12, 25, 7.000000000000000000, #173 ) ;
#222 = APPLICATION_PROTOCOL_DEFINITION ( 'international standard', 'config_control_design', 1994, #164 ) ;
#223 = EDGE_CURVE ( 'NONE', #106, #279, #155, .T. ) ;
#224 = COORDINATED_UNIVERSAL_TIME_OFFSET ( 1, 0, .AHEAD. ) ;
#225 = ORIENTED_EDGE ( 'NONE', *, *, #88, .T. ) ;
#226 = DATE_AND_TIME ( #154, #299 ) ;
#227 = DATE_AND_TIME ( #294, #276 ) ;
#228 = EDGE_LOOP ( 'NONE', ( #126, #18 ) ) ;
#229 = EDGE_CURVE ( 'NONE', #130, #108, #138, .T. ) ;
#230 = ORIENTED_EDGE ( 'NONE', *, *, #285, .F. ) ;
#231 = ORIENTED_EDGE ( 'NONE', *, *, #223, .T. ) ;
#232 = CLOSED_SHELL ( 'NONE', ( #249, #303, #4, #157, #78, #196, #171, #149, #139 ) ) ;
#233 = FACE_OUTER_BOUND ( 'NONE', #116, .T. ) ;
#234 = ORIENTED_EDGE ( 'NONE', *, *, #127, .T. ) ;
#235 = CIRCLE ( 'NONE', #304, 2.200000000000000178 ) ;
#236 = ORIENTED_EDGE ( 'NONE', *, *, #127, .F. ) ;
#237 = CARTESIAN_POINT ( 'NONE',  ( 0.000000000000000000, 0.000000000000000000, 3.000000000000000000 ) ) ;
#238 = DIRECTION ( 'NONE',  ( 0.000000000000000000, 0.000000000000000000, 1.000000000000000000 ) ) ;
#239 = CIRCLE ( 'NONE', #105, 4.000000000000000000 ) ;
#240 = APPROVAL_PERSON_ORGANIZATION ( #197, #296, #103 ) ;
#241 = DIRECTION ( 'NONE',  ( 1.000000000000000000, 0.000000000000000000, 0.000000000000000000 ) ) ;
#242 = FACE_OUTER_BOUND ( 'NONE', #20, .T. ) ;
#243 = TOROIDAL_SURFACE ( 'NONE', #54, 2.200000000000000178, 0.2000000000000000111 ) ;
#244 = PRODUCT_RELATED_PRODUCT_CATEGORY ( 'detail', '', ( #35 ) ) ;
#245 = DIRECTION ( 'NONE',  ( 1.000000000000000000, 0.000000000000000000, 0.000000000000000000 ) ) ;
#246 = AXIS2_PLACEMENT_3D ( 'NONE', #266, #267, #101 ) ;
#247 = PERSON_AND_ORGANIZATION ( #217, #23 ) ;
#248 = CALENDAR_DATE ( 2022, 7, 7 ) ;
#249 = ADVANCED_FACE ( 'NONE', ( #146 ), #87, .F. ) ;
#250 = PERSON_AND_ORGANIZATION_ROLE ( 'design_supplier' ) ;
#251 =( LENGTH_UNIT ( ) NAMED_UNIT ( * ) SI_UNIT ( .MILLI., .METRE. ) );
#252 = CC_DESIGN_DATE_AND_TIME_ASSIGNMENT ( #104, #273, ( #39 ) ) ;
#253 = MECHANICAL_CONTEXT ( 'NONE', #191, 'mechanical' ) ;
#254 = CARTESIAN_POINT ( 'NONE',  ( 4.000000000000000000, 4.898587196589412829E-16, 3.000000000000000000 ) ) ;
#255 = APPROVAL_DATE_TIME ( #89, #97 ) ;
#256 = VECTOR ( 'NONE', #119, 1000.000000000000000 ) ;
#257 = ORIENTED_EDGE ( 'NONE', *, *, #285, .T. ) ;
#258 = DIRECTION ( 'NONE',  ( -0.000000000000000000, -0.000000000000000000, -1.000000000000000000 ) ) ;
#259 = DIRECTION ( 'NONE',  ( 1.000000000000000000, 0.000000000000000000, 0.000000000000000000 ) ) ;
#260 = CARTESIAN_POINT ( 'NONE',  ( -2.000000000000000000, 0.000000000000000000, 803.0000000000000000 ) ) ;
#261 = AXIS2_PLACEMENT_3D ( 'NONE', #26, #263, #241 ) ;
#262 = APPROVAL ( #56, 'NEURÈENÝ' ) ;
#263 = DIRECTION ( 'NONE',  ( -0.000000000000000000, -0.000000000000000000, -1.000000000000000000 ) ) ;
#264 = CARTESIAN_POINT ( 'NONE',  ( 0.000000000000000000, 0.000000000000000000, 803.0000000000000000 ) ) ;
#265 = CARTESIAN_POINT ( 'NONE',  ( 0.000000000000000000, 0.000000000000000000, 3.000000000000000000 ) ) ;
#266 = CARTESIAN_POINT ( 'NONE',  ( 0.000000000000000000, 0.000000000000000000, 803.0000000000000000 ) ) ;
#267 = DIRECTION ( 'NONE',  ( -0.000000000000000000, -0.000000000000000000, -1.000000000000000000 ) ) ;
#268 = DATE_TIME_ROLE ( 'creation_date' ) ;
#269 = ORIENTED_EDGE ( 'NONE', *, *, #229, .F. ) ;
#270 = ORIENTED_EDGE ( 'NONE', *, *, #64, .T. ) ;
#271 = PERSON_AND_ORGANIZATION_ROLE ( 'creator' ) ;
#272 = VECTOR ( 'NONE', #71, 1000.000000000000000 ) ;
#273 = DATE_TIME_ROLE ( 'classification_date' ) ;
#274 = EDGE_LOOP ( 'NONE', ( #269, #36, #225, #230 ) ) ;
#275 = CIRCLE ( 'NONE', #43, 2.000000000000000000 ) ;
#276 = LOCAL_TIME ( 12, 25, 7.000000000000000000, #152 ) ;
#277 = EDGE_CURVE ( 'NONE', #298, #57, #235, .T. ) ;
#278 = DIRECTION ( 'NONE',  ( 0.000000000000000000, 0.000000000000000000, -1.000000000000000000 ) ) ;
#279 = VERTEX_POINT ( 'NONE', #51 ) ;
#280 = AXIS2_PLACEMENT_3D ( 'NONE', #190, #169, #142 ) ;
#281 = EDGE_CURVE ( 'NONE', #57, #298, #144, .T. ) ;
#282 = ORIENTED_EDGE ( 'NONE', *, *, #28, .F. ) ;
#283 = DIRECTION ( 'NONE',  ( 0.000000000000000000, 0.000000000000000000, 1.000000000000000000 ) ) ;
#284 = CARTESIAN_POINT ( 'NONE',  ( 0.000000000000000000, 0.000000000000000000, 0.000000000000000000 ) ) ;
#285 = EDGE_CURVE ( 'NONE', #108, #86, #170, .T. ) ;
#286 = DIRECTION ( 'NONE',  ( -1.000000000000000000, 0.000000000000000000, 0.000000000000000000 ) ) ;
#287 = AXIS2_PLACEMENT_3D ( 'NONE', #76, #77, #102 ) ;
#288 = DIRECTION ( 'NONE',  ( -1.000000000000000000, 1.224646799147353207E-16, 0.000000000000000000 ) ) ;
#289 = DIRECTION ( 'NONE',  ( 1.000000000000000000, 0.000000000000000000, 0.000000000000000000 ) ) ;
#290 = DIRECTION ( 'NONE',  ( 0.000000000000000000, 0.000000000000000000, 1.000000000000000000 ) ) ;
#291 = CC_DESIGN_PERSON_AND_ORGANIZATION_ASSIGNMENT ( #37, #17, ( #39 ) ) ;
#292 = LOCAL_TIME ( 12, 25, 7.000000000000000000, #175 ) ;
#293 = DIRECTION ( 'NONE',  ( 1.000000000000000000, 0.000000000000000000, 0.000000000000000000 ) ) ;
#294 = CALENDAR_DATE ( 2022, 7, 7 ) ;
#295 = AXIS2_PLACEMENT_3D ( 'NONE', #90, #115, #111 ) ;
#296 = APPROVAL ( #79, 'NEURÈENÝ' ) ;
#297 = APPROVAL_STATUS ( 'not_yet_approved' ) ;
#298 = VERTEX_POINT ( 'NONE', #99 ) ;
#299 = LOCAL_TIME ( 12, 25, 7.000000000000000000, #180 ) ;
#300 = ORIENTED_EDGE ( 'NONE', *, *, #33, .F. ) ;
#301 =( NAMED_UNIT ( * ) SI_UNIT ( $, .STERADIAN. ) SOLID_ANGLE_UNIT ( ) );
#302 = ORIENTED_EDGE ( 'NONE', *, *, #223, .F. ) ;
#303 = ADVANCED_FACE ( 'NONE', ( #29 ), #120, .T. ) ;
#304 = AXIS2_PLACEMENT_3D ( 'NONE', #237, #27, #10 ) ;
#305 = CYLINDRICAL_SURFACE ( 'NONE', #295, 4.000000000000000000 ) ;
#306 = FACE_OUTER_BOUND ( 'NONE', #274, .T. ) ;
#307 = CARTESIAN_POINT ( 'NONE',  ( -4.000000000000000000, 0.000000000000000000, 3.000000000000000000 ) ) ;
ENDSEC;
END-ISO-10303-21;
