ISO-10303-21;
HEADER;
FILE_DESCRIPTION (( 'STEP AP203' ),
    '1' );
FILE_NAME ('4297.STEP',
    '2022-07-07T10:04:12',
    ( '' ),
    ( '' ),
    'SwSTEP 2.0',
    'SolidWorks 2019',
    '' );
FILE_SCHEMA (( 'CONFIG_CONTROL_DESIGN' ));
ENDSEC;

DATA;
#1 = ORIENTED_EDGE ( 'NONE', *, *, #260, .F. ) ;
#2 = PRODUCT_DEFINITION_FORMATION_WITH_SPECIFIED_SOURCE ( 'LIBOVOLNÝ', '', #278, .NOT_KNOWN. ) ;
#3 = ORIENTED_EDGE ( 'NONE', *, *, #34, .F. ) ;
#4 = CARTESIAN_POINT ( 'NONE',  ( 6.000000000000000888, 7.347880794884120722E-16, 0.000000000000000000 ) ) ;
#5 = ORIENTED_EDGE ( 'NONE', *, *, #104, .F. ) ;
#6 = DIRECTION ( 'NONE',  ( -0.000000000000000000, -0.000000000000000000, -1.000000000000000000 ) ) ;
#7 = CIRCLE ( 'NONE', #48, 3.750000000000000000 ) ;
#8 = DIRECTION ( 'NONE',  ( 0.000000000000000000, 0.000000000000000000, 1.000000000000000000 ) ) ;
#9 = CARTESIAN_POINT ( 'NONE',  ( 0.000000000000000000, 0.000000000000000000, 1004.999999999999886 ) ) ;
#10 = ADVANCED_FACE ( 'NONE', ( #83 ), #51, .F. ) ;
#11 = ORIENTED_EDGE ( 'NONE', *, *, #260, .T. ) ;
#12 = CARTESIAN_POINT ( 'NONE',  ( 6.000000000000000888, 7.347880794884120722E-16, 5.000000000000000000 ) ) ;
#13 = VECTOR ( 'NONE', #109, 1000.000000000000000 ) ;
#14 = DIRECTION ( 'NONE',  ( 1.000000000000000000, 0.000000000000000000, 0.000000000000000000 ) ) ;
#15 = CYLINDRICAL_SURFACE ( 'NONE', #70, 6.000000000000000888 ) ;
#16 = AXIS2_PLACEMENT_3D ( 'NONE', #136, #111, #200 ) ;
#17 = DIRECTION ( 'NONE',  ( -1.000000000000000000, 0.000000000000000000, 0.000000000000000000 ) ) ;
#18 = PRODUCT_RELATED_PRODUCT_CATEGORY ( 'detail', '', ( #278 ) ) ;
#19 = DIRECTION ( 'NONE',  ( 1.000000000000000000, 0.000000000000000000, 0.000000000000000000 ) ) ;
#20 = PERSON_AND_ORGANIZATION ( #191, #140 ) ;
#21 = PERSON_AND_ORGANIZATION ( #191, #140 ) ;
#22 = APPLICATION_CONTEXT ( 'configuration controlled 3d designs of mechanical parts and assemblies' ) ;
#23 = ORIENTED_EDGE ( 'NONE', *, *, #158, .F. ) ;
#24 = APPROVAL_PERSON_ORGANIZATION ( #72, #210, #49 ) ;
#25 = ORIENTED_EDGE ( 'NONE', *, *, #186, .T. ) ;
#26 = AXIS2_PLACEMENT_3D ( 'NONE', #197, #77, #241 ) ;
#27 = ORIENTED_EDGE ( 'NONE', *, *, #135, .T. ) ;
#28 = DIRECTION ( 'NONE',  ( -0.000000000000000000, -0.000000000000000000, -1.000000000000000000 ) ) ;
#29 = EDGE_LOOP ( 'NONE', ( #5, #1 ) ) ;
#30 = PRODUCT_DEFINITION_SHAPE ( 'NONE', 'NONE',  #234 ) ;
#31 = FACE_OUTER_BOUND ( 'NONE', #29, .T. ) ;
#32 = CARTESIAN_POINT ( 'NONE',  ( 0.000000000000000000, 0.000000000000000000, 0.000000000000000000 ) ) ;
#33 = DIRECTION ( 'NONE',  ( -1.000000000000000000, 0.000000000000000000, 0.000000000000000000 ) ) ;
#34 = EDGE_CURVE ( 'NONE', #281, #143, #68, .T. ) ;
#35 = LOCAL_TIME ( 12, 4, 12.00000000000000000, #163 ) ;
#36 = DIRECTION ( 'NONE',  ( 1.000000000000000000, 0.000000000000000000, 0.000000000000000000 ) ) ;
#37 = DIRECTION ( 'NONE',  ( 1.000000000000000000, 0.000000000000000000, 0.000000000000000000 ) ) ;
#38 = CARTESIAN_POINT ( 'NONE',  ( 0.000000000000000000, 0.000000000000000000, 5.199999999999982414 ) ) ;
#39 =( LENGTH_UNIT ( ) NAMED_UNIT ( * ) SI_UNIT ( .MILLI., .METRE. ) );
#40 = DIRECTION ( 'NONE',  ( -0.000000000000000000, -0.000000000000000000, -1.000000000000000000 ) ) ;
#41 = CARTESIAN_POINT ( 'NONE',  ( -6.000000000000000888, 0.000000000000000000, 5.000000000000000000 ) ) ;
#42 = AXIS2_PLACEMENT_3D ( 'NONE', #108, #6, #224 ) ;
#43 = DIRECTION ( 'NONE',  ( 0.000000000000000000, 0.000000000000000000, 1.000000000000000000 ) ) ;
#44 = PERSON_AND_ORGANIZATION_ROLE ( 'creator' ) ;
#45 = APPROVAL_DATE_TIME ( #141, #94 ) ;
#46 = ADVANCED_FACE ( 'NONE', ( #127 ), #239, .T. ) ;
#47 = COORDINATED_UNIVERSAL_TIME_OFFSET ( 1, 0, .AHEAD. ) ;
#48 = AXIS2_PLACEMENT_3D ( 'NONE', #286, #250, #79 ) ;
#49 = APPROVAL_ROLE ( '' ) ;
#50 = EDGE_LOOP ( 'NONE', ( #280, #61 ) ) ;
#51 = TOROIDAL_SURFACE ( 'NONE', #134, 3.949999999999999734, 0.2000000000000000111 ) ;
#52 = APPLICATION_CONTEXT ( 'configuration controlled 3d designs of mechanical parts and assemblies' ) ;
#53 = AXIS2_PLACEMENT_3D ( 'NONE', #82, #222, #65 ) ;
#54 = ORIENTED_EDGE ( 'NONE', *, *, #194, .T. ) ;
#55 = ORIENTED_EDGE ( 'NONE', *, *, #238, .T. ) ;
#56 = AXIS2_PLACEMENT_3D ( 'NONE', #293, #86, #223 ) ;
#57 = CIRCLE ( 'NONE', #167, 3.750000000000000000 ) ;
#58 = DIRECTION ( 'NONE',  ( 0.000000000000000000, 0.000000000000000000, 1.000000000000000000 ) ) ;
#59 = CARTESIAN_POINT ( 'NONE',  ( 0.000000000000000000, 0.000000000000000000, 5.199999999999982414 ) ) ;
#60 = DIRECTION ( 'NONE',  ( -1.000000000000000000, 0.000000000000000000, 0.000000000000000000 ) ) ;
#61 = ORIENTED_EDGE ( 'NONE', *, *, #295, .T. ) ;
#62 = VECTOR ( 'NONE', #28, 1000.000000000000000 ) ;
#63 = DIRECTION ( 'NONE',  ( -0.000000000000000000, -0.000000000000000000, -1.000000000000000000 ) ) ;
#64 = EDGE_LOOP ( 'NONE', ( #285, #99, #11, #246 ) ) ;
#65 = DIRECTION ( 'NONE',  ( 1.000000000000000000, 0.000000000000000000, 0.000000000000000000 ) ) ;
#66 = CARTESIAN_POINT ( 'NONE',  ( -3.750000000000000000, 0.000000000000000000, 5.199999999999982414 ) ) ;
#67 = CARTESIAN_POINT ( 'NONE',  ( 0.000000000000000000, 0.000000000000000000, 0.000000000000000000 ) ) ;
#68 = CIRCLE ( 'NONE', #276, 6.000000000000000888 ) ;
#69 = CARTESIAN_POINT ( 'NONE',  ( 0.000000000000000000, 0.000000000000000000, 0.000000000000000000 ) ) ;
#70 = AXIS2_PLACEMENT_3D ( 'NONE', #249, #40, #17 ) ;
#71 = DATE_TIME_ROLE ( 'classification_date' ) ;
#72 = PERSON_AND_ORGANIZATION ( #191, #140 ) ;
#73 = VECTOR ( 'NONE', #247, 1000.000000000000000 ) ;
#74 = EDGE_LOOP ( 'NONE', ( #279, #263, #55, #259 ) ) ;
#75 = AXIS2_PLACEMENT_3D ( 'NONE', #150, #160, #33 ) ;
#76 = CIRCLE ( 'NONE', #114, 3.750000000000000000 ) ;
#77 = DIRECTION ( 'NONE',  ( 0.000000000000000000, -1.000000000000000000, 0.000000000000000000 ) ) ;
#78 =( GEOMETRIC_REPRESENTATION_CONTEXT ( 3 ) GLOBAL_UNCERTAINTY_ASSIGNED_CONTEXT ( ( #297 ) ) GLOBAL_UNIT_ASSIGNED_CONTEXT ( ( #39, #175, #89 ) ) REPRESENTATION_CONTEXT ( 'NONE', 'WORKASPACE' ) );
#79 = DIRECTION ( 'NONE',  ( 1.000000000000000000, 0.000000000000000000, 0.000000000000000000 ) ) ;
#80 = CC_DESIGN_DATE_AND_TIME_ASSIGNMENT ( #91, #71, ( #116 ) ) ;
#81 = CARTESIAN_POINT ( 'NONE',  ( 6.000000000000000888, 7.347880794884120722E-16, 5.000000000000000000 ) ) ;
#82 = CARTESIAN_POINT ( 'NONE',  ( 0.000000000000000000, 0.000000000000000000, 0.000000000000000000 ) ) ;
#83 = FACE_OUTER_BOUND ( 'NONE', #243, .T. ) ;
#84 = CARTESIAN_POINT ( 'NONE',  ( -3.949999999999999734, 4.837354856632044071E-16, 4.999999999999991118 ) ) ;
#85 = CC_DESIGN_APPROVAL ( #94, ( #116 ) ) ;
#86 = DIRECTION ( 'NONE',  ( 1.224646799147353207E-16, 1.000000000000000000, -0.000000000000000000 ) ) ;
#87 = CARTESIAN_POINT ( 'NONE',  ( 0.000000000000000000, 0.000000000000000000, 5.199999999999982414 ) ) ;
#88 = FACE_OUTER_BOUND ( 'NONE', #153, .T. ) ;
#89 =( NAMED_UNIT ( * ) SI_UNIT ( $, .STERADIAN. ) SOLID_ANGLE_UNIT ( ) );
#90 = APPROVAL_PERSON_ORGANIZATION ( #164, #305, #228 ) ;
#91 = DATE_AND_TIME ( #203, #93 ) ;
#92 = COORDINATED_UNIVERSAL_TIME_OFFSET ( 1, 0, .AHEAD. ) ;
#93 = LOCAL_TIME ( 12, 4, 12.00000000000000000, #255 ) ;
#94 = APPROVAL ( #252, 'NEURÈENÝ' ) ;
#95 = CALENDAR_DATE ( 2022, 7, 7 ) ;
#96 = VERTEX_POINT ( 'NONE', #4 ) ;
#97 = AXIS2_PLACEMENT_3D ( 'NONE', #87, #245, #199 ) ;
#98 = CC_DESIGN_PERSON_AND_ORGANIZATION_ASSIGNMENT ( #21, #44, ( #234 ) ) ;
#99 = ORIENTED_EDGE ( 'NONE', *, *, #158, .T. ) ;
#100 = EDGE_LOOP ( 'NONE', ( #206, #105, #236, #25 ) ) ;
#101 = DIRECTION ( 'NONE',  ( 1.000000000000000000, 0.000000000000000000, 0.000000000000000000 ) ) ;
#102 = CYLINDRICAL_SURFACE ( 'NONE', #262, 3.750000000000000000 ) ;
#103 = CIRCLE ( 'NONE', #16, 3.949999999999999734 ) ;
#104 = EDGE_CURVE ( 'NONE', #307, #96, #215, .T. ) ;
#105 = ORIENTED_EDGE ( 'NONE', *, *, #113, .F. ) ;
#106 = CARTESIAN_POINT ( 'NONE',  ( 0.000000000000000000, 0.000000000000000000, 5.000000000000000000 ) ) ;
#107 = CARTESIAN_POINT ( 'NONE',  ( 0.000000000000000000, 0.000000000000000000, 5.000000000000000000 ) ) ;
#108 = CARTESIAN_POINT ( 'NONE',  ( 0.000000000000000000, 0.000000000000000000, 5.000000000000000000 ) ) ;
#109 = DIRECTION ( 'NONE',  ( -0.000000000000000000, -0.000000000000000000, -1.000000000000000000 ) ) ;
#110 = AXIS2_PLACEMENT_3D ( 'NONE', #38, #131, #221 ) ;
#111 = DIRECTION ( 'NONE',  ( -0.000000000000000000, -0.000000000000000000, -1.000000000000000000 ) ) ;
#112 = DATE_AND_TIME ( #95, #258 ) ;
#113 = EDGE_CURVE ( 'NONE', #188, #119, #76, .T. ) ;
#114 = AXIS2_PLACEMENT_3D ( 'NONE', #149, #129, #216 ) ;
#115 = COORDINATED_UNIVERSAL_TIME_OFFSET ( 1, 0, .AHEAD. ) ;
#116 = SECURITY_CLASSIFICATION ( '', '', #161 ) ;
#117 = APPROVAL_DATE_TIME ( #137, #305 ) ;
#118 = APPLICATION_PROTOCOL_DEFINITION ( 'international standard', 'config_control_design', 1994, #22 ) ;
#119 = VERTEX_POINT ( 'NONE', #195 ) ;
#120 = AXIS2_PLACEMENT_3D ( 'NONE', #32, #156, #36 ) ;
#121 = EDGE_LOOP ( 'NONE', ( #264, #213 ) ) ;
#122 = VERTEX_POINT ( 'NONE', #66 ) ;
#123 = ADVANCED_BREP_SHAPE_REPRESENTATION ( '4297', ( #235, #225 ), #78 ) ;
#124 = FACE_OUTER_BOUND ( 'NONE', #146, .T. ) ;
#125 = DIRECTION ( 'NONE',  ( -1.000000000000000000, 0.000000000000000000, 0.000000000000000000 ) ) ;
#126 = EDGE_CURVE ( 'NONE', #119, #304, #267, .T. ) ;
#127 = FACE_OUTER_BOUND ( 'NONE', #121, .T. ) ;
#128 = PLANE ( 'NONE',  #273 ) ;
#129 = DIRECTION ( 'NONE',  ( 0.000000000000000000, 0.000000000000000000, 1.000000000000000000 ) ) ;
#130 = DIRECTION ( 'NONE',  ( 0.000000000000000000, 0.000000000000000000, 1.000000000000000000 ) ) ;
#131 = DIRECTION ( 'NONE',  ( 0.000000000000000000, 0.000000000000000000, 1.000000000000000000 ) ) ;
#132 = FACE_BOUND ( 'NONE', #50, .T. ) ;
#133 = CARTESIAN_POINT ( 'NONE',  ( 3.949999999999999734, 0.000000000000000000, 4.999999999999991118 ) ) ;
#134 = AXIS2_PLACEMENT_3D ( 'NONE', #59, #172, #198 ) ;
#135 = EDGE_CURVE ( 'NONE', #281, #307, #284, .T. ) ;
#136 = CARTESIAN_POINT ( 'NONE',  ( 0.000000000000000000, 0.000000000000000000, 5.000000000000000000 ) ) ;
#137 = DATE_AND_TIME ( #185, #205 ) ;
#138 = PERSON_AND_ORGANIZATION ( #191, #140 ) ;
#139 = PERSON_AND_ORGANIZATION ( #191, #140 ) ;
#140 = ORGANIZATION ( 'NEURÈENÝ', 'NEURÈENÝ', '' ) ;
#141 = DATE_AND_TIME ( #254, #35 ) ;
#142 = APPROVAL_DATE_TIME ( #201, #210 ) ;
#143 = VERTEX_POINT ( 'NONE', #81 ) ;
#144 = AXIS2_PLACEMENT_3D ( 'NONE', #292, #130, #294 ) ;
#145 = EDGE_CURVE ( 'NONE', #304, #178, #291, .T. ) ;
#146 = EDGE_LOOP ( 'NONE', ( #208, #257, #166, #190 ) ) ;
#147 = CC_DESIGN_SECURITY_CLASSIFICATION ( #116, ( #2 ) ) ;
#148 = CC_DESIGN_DATE_AND_TIME_ASSIGNMENT ( #112, #277, ( #234 ) ) ;
#149 = CARTESIAN_POINT ( 'NONE',  ( 0.000000000000000000, 0.000000000000000000, 1004.999999999999886 ) ) ;
#150 = CARTESIAN_POINT ( 'NONE',  ( 0.000000000000000000, 0.000000000000000000, 5.000000000000000000 ) ) ;
#151 = DIRECTION ( 'NONE',  ( 1.000000000000000000, 0.000000000000000000, -0.000000000000000000 ) ) ;
#152 = CARTESIAN_POINT ( 'NONE',  ( -6.000000000000000888, 0.000000000000000000, 0.000000000000000000 ) ) ;
#153 = EDGE_LOOP ( 'NONE', ( #23, #3, #27, #231 ) ) ;
#154 = ADVANCED_FACE ( 'NONE', ( #124 ), #237, .F. ) ;
#155 = LOCAL_TIME ( 12, 4, 12.00000000000000000, #92 ) ;
#156 = DIRECTION ( 'NONE',  ( 0.000000000000000000, 0.000000000000000000, 1.000000000000000000 ) ) ;
#157 = CARTESIAN_POINT ( 'NONE',  ( -3.750000000000000000, 0.000000000000000000, 1004.999999999999886 ) ) ;
#158 = EDGE_CURVE ( 'NONE', #143, #96, #289, .T. ) ;
#159 = FACE_OUTER_BOUND ( 'NONE', #64, .T. ) ;
#160 = DIRECTION ( 'NONE',  ( -0.000000000000000000, -0.000000000000000000, -1.000000000000000000 ) ) ;
#161 = SECURITY_CLASSIFICATION_LEVEL ( 'unclassified' ) ;
#162 = CIRCLE ( 'NONE', #233, 6.000000000000000888 ) ;
#163 = COORDINATED_UNIVERSAL_TIME_OFFSET ( 1, 0, .AHEAD. ) ;
#164 = PERSON_AND_ORGANIZATION ( #191, #140 ) ;
#165 = APPLICATION_PROTOCOL_DEFINITION ( 'international standard', 'config_control_design', 1994, #52 ) ;
#166 = ORIENTED_EDGE ( 'NONE', *, *, #283, .F. ) ;
#167 = AXIS2_PLACEMENT_3D ( 'NONE', #9, #214, #14 ) ;
#168 = EDGE_LOOP ( 'NONE', ( #170, #54 ) ) ;
#169 = ORIENTED_EDGE ( 'NONE', *, *, #295, .F. ) ;
#170 = ORIENTED_EDGE ( 'NONE', *, *, #34, .T. ) ;
#171 = DIRECTION ( 'NONE',  ( 1.000000000000000000, 0.000000000000000000, -0.000000000000000000 ) ) ;
#172 = DIRECTION ( 'NONE',  ( 0.000000000000000000, 0.000000000000000000, 1.000000000000000000 ) ) ;
#173 = DIRECTION ( 'NONE',  ( -0.000000000000000000, -0.000000000000000000, -1.000000000000000000 ) ) ;
#174 = ORIENTED_EDGE ( 'NONE', *, *, #238, .F. ) ;
#175 =( NAMED_UNIT ( * ) PLANE_ANGLE_UNIT ( ) SI_UNIT ( $, .RADIAN. ) );
#176 = EDGE_CURVE ( 'NONE', #122, #269, #184, .T. ) ;
#177 = VECTOR ( 'NONE', #288, 1000.000000000000000 ) ;
#178 = VERTEX_POINT ( 'NONE', #133 ) ;
#179 = CARTESIAN_POINT ( 'NONE',  ( -3.750000000000000000, 0.000000000000000000, 1004.999999999999886 ) ) ;
#180 = LINE ( 'NONE', #157, #177 ) ;
#181 = ADVANCED_FACE ( 'NONE', ( #159 ), #15, .T. ) ;
#182 = PERSON_AND_ORGANIZATION_ROLE ( 'design_owner' ) ;
#183 = AXIS2_PLACEMENT_3D ( 'NONE', #265, #173, #125 ) ;
#184 = CIRCLE ( 'NONE', #56, 0.1999999999999996503 ) ;
#185 = CALENDAR_DATE ( 2022, 7, 7 ) ;
#186 = EDGE_CURVE ( 'NONE', #122, #304, #209, .T. ) ;
#187 = CC_DESIGN_APPROVAL ( #210, ( #2 ) ) ;
#188 = VERTEX_POINT ( 'NONE', #179 ) ;
#189 = CALENDAR_DATE ( 2022, 7, 7 ) ;
#190 = ORIENTED_EDGE ( 'NONE', *, *, #145, .F. ) ;
#191 = PERSON ( 'NEURÈENÝ', 'NEURÈENÝ', 'NEURÈENÝ', ('NEURÈENÝ'), ('NEURÈENÝ'), ('NEURÈENÝ') ) ;
#192 = CLOSED_SHELL ( 'NONE', ( #154, #274, #181, #212, #227, #232, #300, #46, #10 ) ) ;
#193 = CARTESIAN_POINT ( 'NONE',  ( 3.750000000000000000, 4.592425496802573972E-16, 5.199999999999982414 ) ) ;
#194 = EDGE_CURVE ( 'NONE', #143, #281, #162, .T. ) ;
#195 = CARTESIAN_POINT ( 'NONE',  ( 3.750000000000000000, 4.592425496802573972E-16, 1004.999999999999886 ) ) ;
#196 = DIRECTION ( 'NONE',  ( 0.000000000000000000, 0.000000000000000000, 1.000000000000000000 ) ) ;
#197 = CARTESIAN_POINT ( 'NONE',  ( 3.949999999999999734, 0.000000000000000000, 5.199999999999982414 ) ) ;
#198 = DIRECTION ( 'NONE',  ( 1.000000000000000000, 0.000000000000000000, 0.000000000000000000 ) ) ;
#199 = DIRECTION ( 'NONE',  ( 1.000000000000000000, 0.000000000000000000, 0.000000000000000000 ) ) ;
#200 = DIRECTION ( 'NONE',  ( 1.000000000000000000, 0.000000000000000000, 0.000000000000000000 ) ) ;
#201 = DATE_AND_TIME ( #189, #155 ) ;
#202 = CC_DESIGN_PERSON_AND_ORGANIZATION_ASSIGNMENT ( #138, #182, ( #278 ) ) ;
#203 = CALENDAR_DATE ( 2022, 7, 7 ) ;
#204 = PERSON_AND_ORGANIZATION_ROLE ( 'design_supplier' ) ;
#205 = LOCAL_TIME ( 12, 4, 12.00000000000000000, #115 ) ;
#206 = ORIENTED_EDGE ( 'NONE', *, *, #126, .F. ) ;
#207 = ORIENTED_EDGE ( 'NONE', *, *, #176, .F. ) ;
#208 = ORIENTED_EDGE ( 'NONE', *, *, #186, .F. ) ;
#209 = CIRCLE ( 'NONE', #97, 3.750000000000000000 ) ;
#210 = APPROVAL ( #298, 'NEURÈENÝ' ) ;
#211 = ORIENTED_EDGE ( 'NONE', *, *, #145, .T. ) ;
#212 = ADVANCED_FACE ( 'NONE', ( #88 ), #218, .T. ) ;
#213 = ORIENTED_EDGE ( 'NONE', *, *, #290, .T. ) ;
#214 = DIRECTION ( 'NONE',  ( 0.000000000000000000, 0.000000000000000000, 1.000000000000000000 ) ) ;
#215 = CIRCLE ( 'NONE', #120, 6.000000000000000888 ) ;
#216 = DIRECTION ( 'NONE',  ( 1.000000000000000000, 0.000000000000000000, 0.000000000000000000 ) ) ;
#217 = CIRCLE ( 'NONE', #42, 3.949999999999999734 ) ;
#218 = CYLINDRICAL_SURFACE ( 'NONE', #75, 6.000000000000000888 ) ;
#219 = CARTESIAN_POINT ( 'NONE',  ( 3.750000000000000000, 4.592425496802573972E-16, 1004.999999999999886 ) ) ;
#220 = FACE_OUTER_BOUND ( 'NONE', #74, .T. ) ;
#221 = DIRECTION ( 'NONE',  ( 1.000000000000000000, 0.000000000000000000, 0.000000000000000000 ) ) ;
#222 = DIRECTION ( 'NONE',  ( 0.000000000000000000, 0.000000000000000000, 1.000000000000000000 ) ) ;
#223 = DIRECTION ( 'NONE',  ( -1.000000000000000000, 1.224646799147353454E-16, 0.000000000000000000 ) ) ;
#224 = DIRECTION ( 'NONE',  ( 1.000000000000000000, 0.000000000000000000, 0.000000000000000000 ) ) ;
#225 = AXIS2_PLACEMENT_3D ( 'NONE', #69, #43, #19 ) ;
#226 = PERSON_AND_ORGANIZATION_ROLE ( 'classification_officer' ) ;
#227 = ADVANCED_FACE ( 'NONE', ( #132, #271 ), #242, .T. ) ;
#228 = APPROVAL_ROLE ( '' ) ;
#229 = MECHANICAL_CONTEXT ( 'NONE', #52, 'mechanical' ) ;
#230 = PERSON_AND_ORGANIZATION ( #191, #140 ) ;
#231 = ORIENTED_EDGE ( 'NONE', *, *, #104, .T. ) ;
#232 = ADVANCED_FACE ( 'NONE', ( #31 ), #128, .F. ) ;
#233 = AXIS2_PLACEMENT_3D ( 'NONE', #106, #270, #37 ) ;
#234 = PRODUCT_DEFINITION ( 'NEZNÁMÝ', '', #2, #261 ) ;
#235 = MANIFOLD_SOLID_BREP ( 'Zaoblit1', #192 ) ;
#236 = ORIENTED_EDGE ( 'NONE', *, *, #253, .T. ) ;
#237 = TOROIDAL_SURFACE ( 'NONE', #110, 3.949999999999999734, 0.2000000000000000111 ) ;
#238 = EDGE_CURVE ( 'NONE', #304, #122, #7, .T. ) ;
#239 = PLANE ( 'NONE',  #303 ) ;
#240 = CC_DESIGN_APPROVAL ( #305, ( #234 ) ) ;
#241 = DIRECTION ( 'NONE',  ( 0.000000000000000000, 0.000000000000000000, -1.000000000000000000 ) ) ;
#242 = PLANE ( 'NONE',  #144 ) ;
#243 = EDGE_LOOP ( 'NONE', ( #207, #174, #211, #169 ) ) ;
#244 = CC_DESIGN_PERSON_AND_ORGANIZATION_ASSIGNMENT ( #306, #226, ( #116 ) ) ;
#245 = DIRECTION ( 'NONE',  ( 0.000000000000000000, 0.000000000000000000, 1.000000000000000000 ) ) ;
#246 = ORIENTED_EDGE ( 'NONE', *, *, #135, .F. ) ;
#247 = DIRECTION ( 'NONE',  ( -0.000000000000000000, -0.000000000000000000, -1.000000000000000000 ) ) ;
#248 = FACE_OUTER_BOUND ( 'NONE', #100, .T. ) ;
#249 = CARTESIAN_POINT ( 'NONE',  ( 0.000000000000000000, 0.000000000000000000, 5.000000000000000000 ) ) ;
#250 = DIRECTION ( 'NONE',  ( 0.000000000000000000, 0.000000000000000000, 1.000000000000000000 ) ) ;
#251 = CC_DESIGN_PERSON_AND_ORGANIZATION_ASSIGNMENT ( #230, #272, ( #2 ) ) ;
#252 = APPROVAL_STATUS ( 'not_yet_approved' ) ;
#253 = EDGE_CURVE ( 'NONE', #188, #122, #180, .T. ) ;
#254 = CALENDAR_DATE ( 2022, 7, 7 ) ;
#255 = COORDINATED_UNIVERSAL_TIME_OFFSET ( 1, 0, .AHEAD. ) ;
#256 = APPROVAL_STATUS ( 'not_yet_approved' ) ;
#257 = ORIENTED_EDGE ( 'NONE', *, *, #176, .T. ) ;
#258 = LOCAL_TIME ( 12, 4, 12.00000000000000000, #47 ) ;
#259 = ORIENTED_EDGE ( 'NONE', *, *, #253, .F. ) ;
#260 = EDGE_CURVE ( 'NONE', #96, #307, #282, .T. ) ;
#261 = DESIGN_CONTEXT ( 'detailed design', #22, 'design' ) ;
#262 = AXIS2_PLACEMENT_3D ( 'NONE', #296, #63, #60 ) ;
#263 = ORIENTED_EDGE ( 'NONE', *, *, #126, .T. ) ;
#264 = ORIENTED_EDGE ( 'NONE', *, *, #113, .T. ) ;
#265 = CARTESIAN_POINT ( 'NONE',  ( 0.000000000000000000, 0.000000000000000000, 1004.999999999999886 ) ) ;
#266 = CARTESIAN_POINT ( 'NONE',  ( 0.000000000000000000, 0.000000000000000000, 1004.999999999999886 ) ) ;
#267 = LINE ( 'NONE', #219, #73 ) ;
#268 = CYLINDRICAL_SURFACE ( 'NONE', #183, 3.750000000000000000 ) ;
#269 = VERTEX_POINT ( 'NONE', #84 ) ;
#270 = DIRECTION ( 'NONE',  ( 0.000000000000000000, 0.000000000000000000, 1.000000000000000000 ) ) ;
#271 = FACE_OUTER_BOUND ( 'NONE', #168, .T. ) ;
#272 = PERSON_AND_ORGANIZATION_ROLE ( 'creator' ) ;
#273 = AXIS2_PLACEMENT_3D ( 'NONE', #67, #196, #171 ) ;
#274 = ADVANCED_FACE ( 'NONE', ( #220 ), #268, .T. ) ;
#275 = APPROVAL_ROLE ( '' ) ;
#276 = AXIS2_PLACEMENT_3D ( 'NONE', #107, #58, #101 ) ;
#277 = DATE_TIME_ROLE ( 'creation_date' ) ;
#278 = PRODUCT ( '4297', '4297', '', ( #229 ) ) ;
#279 = ORIENTED_EDGE ( 'NONE', *, *, #290, .F. ) ;
#280 = ORIENTED_EDGE ( 'NONE', *, *, #283, .T. ) ;
#281 = VERTEX_POINT ( 'NONE', #41 ) ;
#282 = CIRCLE ( 'NONE', #53, 6.000000000000000888 ) ;
#283 = EDGE_CURVE ( 'NONE', #178, #269, #103, .T. ) ;
#284 = LINE ( 'NONE', #287, #62 ) ;
#285 = ORIENTED_EDGE ( 'NONE', *, *, #194, .F. ) ;
#286 = CARTESIAN_POINT ( 'NONE',  ( 0.000000000000000000, 0.000000000000000000, 5.199999999999982414 ) ) ;
#287 = CARTESIAN_POINT ( 'NONE',  ( -6.000000000000000888, 0.000000000000000000, 5.000000000000000000 ) ) ;
#288 = DIRECTION ( 'NONE',  ( -0.000000000000000000, -0.000000000000000000, -1.000000000000000000 ) ) ;
#289 = LINE ( 'NONE', #12, #13 ) ;
#290 = EDGE_CURVE ( 'NONE', #119, #188, #57, .T. ) ;
#291 = CIRCLE ( 'NONE', #26, 0.1999999999999996503 ) ;
#292 = CARTESIAN_POINT ( 'NONE',  ( 0.000000000000000000, 0.000000000000000000, 5.000000000000000000 ) ) ;
#293 = CARTESIAN_POINT ( 'NONE',  ( -3.949999999999999734, 4.837354856632044071E-16, 5.199999999999982414 ) ) ;
#294 = DIRECTION ( 'NONE',  ( 1.000000000000000000, 0.000000000000000000, -0.000000000000000000 ) ) ;
#295 = EDGE_CURVE ( 'NONE', #269, #178, #217, .T. ) ;
#296 = CARTESIAN_POINT ( 'NONE',  ( 0.000000000000000000, 0.000000000000000000, 1004.999999999999886 ) ) ;
#297 = UNCERTAINTY_MEASURE_WITH_UNIT (LENGTH_MEASURE( 1.000000000000000082E-05 ), #39, 'distance_accuracy_value', 'NONE');
#298 = APPROVAL_STATUS ( 'not_yet_approved' ) ;
#299 = CC_DESIGN_PERSON_AND_ORGANIZATION_ASSIGNMENT ( #20, #204, ( #2 ) ) ;
#300 = ADVANCED_FACE ( 'NONE', ( #248 ), #102, .T. ) ;
#301 = APPROVAL_PERSON_ORGANIZATION ( #139, #94, #275 ) ;
#302 = SHAPE_DEFINITION_REPRESENTATION ( #30, #123 ) ;
#303 = AXIS2_PLACEMENT_3D ( 'NONE', #266, #8, #151 ) ;
#304 = VERTEX_POINT ( 'NONE', #193 ) ;
#305 = APPROVAL ( #256, 'NEURÈENÝ' ) ;
#306 = PERSON_AND_ORGANIZATION ( #191, #140 ) ;
#307 = VERTEX_POINT ( 'NONE', #152 ) ;
ENDSEC;
END-ISO-10303-21;
