ISO-10303-21;
HEADER;
FILE_DESCRIPTION (( 'STEP AP203' ),
    '1' );
FILE_NAME ('c232.STEP',
    '2022-07-07T10:09:39',
    ( '' ),
    ( '' ),
    'SwSTEP 2.0',
    'SolidWorks 2019',
    '' );
FILE_SCHEMA (( 'CONFIG_CONTROL_DESIGN' ));
ENDSEC;

DATA;
#1 = PLANE ( 'NONE',  #85 ) ;
#2 = CIRCLE ( 'NONE', #8, 6.000000000000000888 ) ;
#3 = CARTESIAN_POINT ( 'NONE',  ( -6.000000000000000888, 0.000000000000000000, 5.000000000000000000 ) ) ;
#4 = ORIENTED_EDGE ( 'NONE', *, *, #234, .F. ) ;
#5 = PERSON_AND_ORGANIZATION_ROLE ( 'creator' ) ;
#6 = EDGE_CURVE ( 'NONE', #158, #254, #102, .T. ) ;
#7 = ORIENTED_EDGE ( 'NONE', *, *, #125, .F. ) ;
#8 = AXIS2_PLACEMENT_3D ( 'NONE', #88, #87, #40 ) ;
#9 = UNCERTAINTY_MEASURE_WITH_UNIT (LENGTH_MEASURE( 1.000000000000000082E-05 ), #269, 'distance_accuracy_value', 'NONE');
#10 = CC_DESIGN_APPROVAL ( #237, ( #296 ) ) ;
#11 = ORIENTED_EDGE ( 'NONE', *, *, #89, .T. ) ;
#12 = AXIS2_PLACEMENT_3D ( 'NONE', #228, #14, #203 ) ;
#13 = EDGE_LOOP ( 'NONE', ( #81, #113, #162, #4 ) ) ;
#14 = DIRECTION ( 'NONE',  ( 1.224646799147353207E-16, 1.000000000000000000, -0.000000000000000000 ) ) ;
#15 = DIRECTION ( 'NONE',  ( 1.000000000000000000, 0.000000000000000000, 0.000000000000000000 ) ) ;
#16 = DIRECTION ( 'NONE',  ( -1.000000000000000000, 0.000000000000000000, 0.000000000000000000 ) ) ;
#17 = APPROVAL ( #290, 'NEURÈENÝ' ) ;
#18 = FACE_OUTER_BOUND ( 'NONE', #13, .T. ) ;
#19 = PRODUCT_DEFINITION_SHAPE ( 'NONE', 'NONE',  #75 ) ;
#20 = ADVANCED_FACE ( 'NONE', ( #297 ), #302, .T. ) ;
#21 = PERSON_AND_ORGANIZATION ( #230, #159 ) ;
#22 = DIRECTION ( 'NONE',  ( -0.000000000000000000, -0.000000000000000000, -1.000000000000000000 ) ) ;
#23 = CARTESIAN_POINT ( 'NONE',  ( 0.000000000000000000, 0.000000000000000000, 5.000000000000000000 ) ) ;
#24 = FACE_OUTER_BOUND ( 'NONE', #135, .T. ) ;
#25 = PLANE ( 'NONE',  #277 ) ;
#26 = EDGE_CURVE ( 'NONE', #181, #249, #2, .T. ) ;
#27 = COORDINATED_UNIVERSAL_TIME_OFFSET ( 1, 0, .AHEAD. ) ;
#28 = DIRECTION ( 'NONE',  ( -1.000000000000000000, 0.000000000000000000, 0.000000000000000000 ) ) ;
#29 = CALENDAR_DATE ( 2022, 7, 7 ) ;
#30 = CC_DESIGN_PERSON_AND_ORGANIZATION_ASSIGNMENT ( #145, #108, ( #296 ) ) ;
#31 = APPROVAL_PERSON_ORGANIZATION ( #154, #237, #304 ) ;
#32 = APPROVAL_ROLE ( '' ) ;
#33 = ORIENTED_EDGE ( 'NONE', *, *, #234, .T. ) ;
#34 = ORIENTED_EDGE ( 'NONE', *, *, #89, .F. ) ;
#35 = ADVANCED_BREP_SHAPE_REPRESENTATION ( 'c232', ( #243, #142 ), #109 ) ;
#36 = EDGE_LOOP ( 'NONE', ( #64, #272, #69, #222 ) ) ;
#37 = ADVANCED_FACE ( 'NONE', ( #257 ), #256, .T. ) ;
#38 = VERTEX_POINT ( 'NONE', #226 ) ;
#39 = AXIS2_PLACEMENT_3D ( 'NONE', #180, #94, #41 ) ;
#40 = DIRECTION ( 'NONE',  ( 1.000000000000000000, 0.000000000000000000, 0.000000000000000000 ) ) ;
#41 = DIRECTION ( 'NONE',  ( 1.000000000000000000, 0.000000000000000000, 0.000000000000000000 ) ) ;
#42 = ORIENTED_EDGE ( 'NONE', *, *, #26, .F. ) ;
#43 = VERTEX_POINT ( 'NONE', #139 ) ;
#44 = AXIS2_PLACEMENT_3D ( 'NONE', #217, #148, #73 ) ;
#45 = CARTESIAN_POINT ( 'NONE',  ( 0.000000000000000000, 0.000000000000000000, 0.000000000000000000 ) ) ;
#46 = CARTESIAN_POINT ( 'NONE',  ( 6.000000000000000888, 7.347880794884120722E-16, 5.000000000000000000 ) ) ;
#47 = APPROVAL_DATE_TIME ( #71, #237 ) ;
#48 = DIRECTION ( 'NONE',  ( -0.000000000000000000, -0.000000000000000000, -1.000000000000000000 ) ) ;
#49 = CARTESIAN_POINT ( 'NONE',  ( 0.000000000000000000, 0.000000000000000000, 5.200000000000009948 ) ) ;
#50 = AXIS2_PLACEMENT_3D ( 'NONE', #164, #138, #15 ) ;
#51 = DIRECTION ( 'NONE',  ( 0.000000000000000000, 0.000000000000000000, 1.000000000000000000 ) ) ;
#52 = CARTESIAN_POINT ( 'NONE',  ( -3.250000000000000444, 0.000000000000000000, 5.200000000000009948 ) ) ;
#53 = DATE_TIME_ROLE ( 'classification_date' ) ;
#54 = PERSON_AND_ORGANIZATION ( #230, #159 ) ;
#55 = AXIS2_PLACEMENT_3D ( 'NONE', #242, #76, #171 ) ;
#56 = ORIENTED_EDGE ( 'NONE', *, *, #200, .T. ) ;
#57 = ORIENTED_EDGE ( 'NONE', *, *, #6, .T. ) ;
#58 = CC_DESIGN_APPROVAL ( #60, ( #70 ) ) ;
#59 = EDGE_LOOP ( 'NONE', ( #134, #198, #11, #253 ) ) ;
#60 = APPROVAL ( #219, 'NEURÈENÝ' ) ;
#61 = FACE_OUTER_BOUND ( 'NONE', #293, .T. ) ;
#62 = ADVANCED_FACE ( 'NONE', ( #61 ), #161, .F. ) ;
#63 = AXIS2_PLACEMENT_3D ( 'NONE', #303, #92, #260 ) ;
#64 = ORIENTED_EDGE ( 'NONE', *, *, #227, .F. ) ;
#65 = CIRCLE ( 'NONE', #44, 6.000000000000000888 ) ;
#66 = EDGE_LOOP ( 'NONE', ( #110, #294 ) ) ;
#67 = DIRECTION ( 'NONE',  ( 0.000000000000000000, -1.000000000000000000, 0.000000000000000000 ) ) ;
#68 = DATE_AND_TIME ( #93, #190 ) ;
#69 = ORIENTED_EDGE ( 'NONE', *, *, #151, .T. ) ;
#70 = SECURITY_CLASSIFICATION ( '', '', #129 ) ;
#71 = DATE_AND_TIME ( #173, #201 ) ;
#72 = DIRECTION ( 'NONE',  ( 0.000000000000000000, 0.000000000000000000, 1.000000000000000000 ) ) ;
#73 = DIRECTION ( 'NONE',  ( 1.000000000000000000, 0.000000000000000000, 0.000000000000000000 ) ) ;
#74 = CARTESIAN_POINT ( 'NONE',  ( -3.250000000000000444, 0.000000000000000000, 165.0000000000000000 ) ) ;
#75 = PRODUCT_DEFINITION ( 'NEZNÁMÝ', '', #296, #205 ) ;
#76 = DIRECTION ( 'NONE',  ( 0.000000000000000000, 0.000000000000000000, 1.000000000000000000 ) ) ;
#77 = PERSON_AND_ORGANIZATION ( #230, #159 ) ;
#78 = DIRECTION ( 'NONE',  ( 0.000000000000000000, 0.000000000000000000, 1.000000000000000000 ) ) ;
#79 = PERSON_AND_ORGANIZATION ( #230, #159 ) ;
#80 = AXIS2_PLACEMENT_3D ( 'NONE', #49, #106, #152 ) ;
#81 = ORIENTED_EDGE ( 'NONE', *, *, #130, .F. ) ;
#82 = CC_DESIGN_DATE_AND_TIME_ASSIGNMENT ( #283, #232, ( #75 ) ) ;
#83 = AXIS2_PLACEMENT_3D ( 'NONE', #183, #179, #16 ) ;
#84 = EDGE_LOOP ( 'NONE', ( #185, #57 ) ) ;
#85 = AXIS2_PLACEMENT_3D ( 'NONE', #288, #51, #150 ) ;
#86 = AXIS2_PLACEMENT_3D ( 'NONE', #236, #48, #28 ) ;
#87 = DIRECTION ( 'NONE',  ( 0.000000000000000000, 0.000000000000000000, 1.000000000000000000 ) ) ;
#88 = CARTESIAN_POINT ( 'NONE',  ( 0.000000000000000000, 0.000000000000000000, 0.000000000000000000 ) ) ;
#89 = EDGE_CURVE ( 'NONE', #43, #254, #147, .T. ) ;
#90 = AXIS2_PLACEMENT_3D ( 'NONE', #114, #91, #141 ) ;
#91 = DIRECTION ( 'NONE',  ( 0.000000000000000000, 0.000000000000000000, 1.000000000000000000 ) ) ;
#92 = DIRECTION ( 'NONE',  ( 0.000000000000000000, 0.000000000000000000, 1.000000000000000000 ) ) ;
#93 = CALENDAR_DATE ( 2022, 7, 7 ) ;
#94 = DIRECTION ( 'NONE',  ( 0.000000000000000000, 0.000000000000000000, 1.000000000000000000 ) ) ;
#95 = DIRECTION ( 'NONE',  ( 1.000000000000000000, 0.000000000000000000, 0.000000000000000000 ) ) ;
#96 = CC_DESIGN_PERSON_AND_ORGANIZATION_ASSIGNMENT ( #259, #5, ( #75 ) ) ;
#97 = CARTESIAN_POINT ( 'NONE',  ( 6.000000000000000888, 7.347880794884120722E-16, 5.000000000000000000 ) ) ;
#98 = AXIS2_PLACEMENT_3D ( 'NONE', #23, #144, #146 ) ;
#99 = CARTESIAN_POINT ( 'NONE',  ( -6.000000000000000888, 0.000000000000000000, 5.000000000000000000 ) ) ;
#100 = DIRECTION ( 'NONE',  ( -0.000000000000000000, -0.000000000000000000, -1.000000000000000000 ) ) ;
#101 = DIRECTION ( 'NONE',  ( 0.000000000000000000, 0.000000000000000000, 1.000000000000000000 ) ) ;
#102 = CIRCLE ( 'NONE', #197, 3.450000000000000178 ) ;
#103 =( NAMED_UNIT ( * ) SI_UNIT ( $, .STERADIAN. ) SOLID_ANGLE_UNIT ( ) );
#104 = EDGE_CURVE ( 'NONE', #206, #158, #264, .T. ) ;
#105 = LOCAL_TIME ( 12, 9, 39.00000000000000000, #235 ) ;
#106 = DIRECTION ( 'NONE',  ( 0.000000000000000000, 0.000000000000000000, 1.000000000000000000 ) ) ;
#107 = APPLICATION_PROTOCOL_DEFINITION ( 'international standard', 'config_control_design', 1994, #213 ) ;
#108 = PERSON_AND_ORGANIZATION_ROLE ( 'design_supplier' ) ;
#109 =( GEOMETRIC_REPRESENTATION_CONTEXT ( 3 ) GLOBAL_UNCERTAINTY_ASSIGNED_CONTEXT ( ( #9 ) ) GLOBAL_UNIT_ASSIGNED_CONTEXT ( ( #269, #246, #103 ) ) REPRESENTATION_CONTEXT ( 'NONE', 'WORKASPACE' ) );
#110 = ORIENTED_EDGE ( 'NONE', *, *, #169, .T. ) ;
#111 = ORIENTED_EDGE ( 'NONE', *, *, #227, .T. ) ;
#112 = TOROIDAL_SURFACE ( 'NONE', #128, 3.450000000000000178, 0.2000000000000000111 ) ;
#113 = ORIENTED_EDGE ( 'NONE', *, *, #245, .T. ) ;
#114 = CARTESIAN_POINT ( 'NONE',  ( 0.000000000000000000, 0.000000000000000000, 5.200000000000009948 ) ) ;
#115 = ORIENTED_EDGE ( 'NONE', *, *, #245, .F. ) ;
#116 = PERSON_AND_ORGANIZATION_ROLE ( 'design_owner' ) ;
#117 = CYLINDRICAL_SURFACE ( 'NONE', #86, 6.000000000000000888 ) ;
#118 = CC_DESIGN_PERSON_AND_ORGANIZATION_ASSIGNMENT ( #79, #116, ( #132 ) ) ;
#119 = CALENDAR_DATE ( 2022, 7, 7 ) ;
#120 = CYLINDRICAL_SURFACE ( 'NONE', #252, 6.000000000000000888 ) ;
#121 = DIRECTION ( 'NONE',  ( 1.000000000000000000, 0.000000000000000000, 0.000000000000000000 ) ) ;
#122 = LOCAL_TIME ( 12, 9, 39.00000000000000000, #27 ) ;
#123 = CARTESIAN_POINT ( 'NONE',  ( 0.000000000000000000, 0.000000000000000000, 165.0000000000000000 ) ) ;
#124 = MECHANICAL_CONTEXT ( 'NONE', #213, 'mechanical' ) ;
#125 = EDGE_CURVE ( 'NONE', #249, #181, #240, .T. ) ;
#126 = DIRECTION ( 'NONE',  ( 1.000000000000000000, 0.000000000000000000, -0.000000000000000000 ) ) ;
#127 = PERSON_AND_ORGANIZATION_ROLE ( 'creator' ) ;
#128 = AXIS2_PLACEMENT_3D ( 'NONE', #267, #210, #121 ) ;
#129 = SECURITY_CLASSIFICATION_LEVEL ( 'unclassified' ) ;
#130 = EDGE_CURVE ( 'NONE', #178, #274, #187, .T. ) ;
#131 = ORIENTED_EDGE ( 'NONE', *, *, #160, .F. ) ;
#132 = PRODUCT ( 'c232', 'c232', '', ( #124 ) ) ;
#133 = TOROIDAL_SURFACE ( 'NONE', #80, 3.450000000000000178, 0.2000000000000000111 ) ;
#134 = ORIENTED_EDGE ( 'NONE', *, *, #104, .F. ) ;
#135 = EDGE_LOOP ( 'NONE', ( #115, #278, #33, #202 ) ) ;
#136 = CLOSED_SHELL ( 'NONE', ( #262, #20, #153, #255, #279, #62, #37, #175, #186 ) ) ;
#137 = DIRECTION ( 'NONE',  ( 0.000000000000000000, 0.000000000000000000, -1.000000000000000000 ) ) ;
#138 = DIRECTION ( 'NONE',  ( 0.000000000000000000, 0.000000000000000000, 1.000000000000000000 ) ) ;
#139 = CARTESIAN_POINT ( 'NONE',  ( 3.250000000000000444, 3.980102097228898231E-16, 5.200000000000009948 ) ) ;
#140 = PERSON_AND_ORGANIZATION ( #230, #159 ) ;
#141 = DIRECTION ( 'NONE',  ( 1.000000000000000000, 0.000000000000000000, 0.000000000000000000 ) ) ;
#142 = AXIS2_PLACEMENT_3D ( 'NONE', #45, #184, #95 ) ;
#143 = APPROVAL_DATE_TIME ( #68, #17 ) ;
#144 = DIRECTION ( 'NONE',  ( -0.000000000000000000, -0.000000000000000000, -1.000000000000000000 ) ) ;
#145 = PERSON_AND_ORGANIZATION ( #230, #159 ) ;
#146 = DIRECTION ( 'NONE',  ( 1.000000000000000000, 0.000000000000000000, 0.000000000000000000 ) ) ;
#147 = CIRCLE ( 'NONE', #155, 0.1999999999999996503 ) ;
#148 = DIRECTION ( 'NONE',  ( 0.000000000000000000, 0.000000000000000000, 1.000000000000000000 ) ) ;
#149 = APPROVAL_PERSON_ORGANIZATION ( #21, #17, #207 ) ;
#150 = DIRECTION ( 'NONE',  ( 1.000000000000000000, 0.000000000000000000, -0.000000000000000000 ) ) ;
#151 = EDGE_CURVE ( 'NONE', #43, #206, #223, .T. ) ;
#152 = DIRECTION ( 'NONE',  ( 1.000000000000000000, 0.000000000000000000, 0.000000000000000000 ) ) ;
#153 = ADVANCED_FACE ( 'NONE', ( #18 ), #117, .T. ) ;
#154 = PERSON_AND_ORGANIZATION ( #230, #159 ) ;
#155 = AXIS2_PLACEMENT_3D ( 'NONE', #280, #67, #137 ) ;
#156 = SHAPE_DEFINITION_REPRESENTATION ( #19, #35 ) ;
#157 = CC_DESIGN_SECURITY_CLASSIFICATION ( #70, ( #296 ) ) ;
#158 = VERTEX_POINT ( 'NONE', #211 ) ;
#159 = ORGANIZATION ( 'NEURÈENÝ', 'NEURÈENÝ', '' ) ;
#160 = EDGE_CURVE ( 'NONE', #206, #43, #177, .T. ) ;
#161 = PLANE ( 'NONE',  #63 ) ;
#162 = ORIENTED_EDGE ( 'NONE', *, *, #26, .T. ) ;
#163 = CARTESIAN_POINT ( 'NONE',  ( 0.000000000000000000, 0.000000000000000000, 165.0000000000000000 ) ) ;
#164 = CARTESIAN_POINT ( 'NONE',  ( 0.000000000000000000, 0.000000000000000000, 5.000000000000000000 ) ) ;
#165 = DIRECTION ( 'NONE',  ( -0.000000000000000000, -0.000000000000000000, -1.000000000000000000 ) ) ;
#166 = CIRCLE ( 'NONE', #301, 3.250000000000000444 ) ;
#167 = DIRECTION ( 'NONE',  ( 1.000000000000000000, 0.000000000000000000, 0.000000000000000000 ) ) ;
#168 = FACE_OUTER_BOUND ( 'NONE', #59, .T. ) ;
#169 = EDGE_CURVE ( 'NONE', #274, #178, #65, .T. ) ;
#170 = FACE_OUTER_BOUND ( 'NONE', #66, .T. ) ;
#171 = DIRECTION ( 'NONE',  ( 1.000000000000000000, 0.000000000000000000, 0.000000000000000000 ) ) ;
#172 = DIRECTION ( 'NONE',  ( -0.000000000000000000, -0.000000000000000000, -1.000000000000000000 ) ) ;
#173 = CALENDAR_DATE ( 2022, 7, 7 ) ;
#174 = CC_DESIGN_APPROVAL ( #17, ( #75 ) ) ;
#175 = ADVANCED_FACE ( 'NONE', ( #189 ), #25, .T. ) ;
#176 = ORIENTED_EDGE ( 'NONE', *, *, #250, .F. ) ;
#177 = CIRCLE ( 'NONE', #275, 3.250000000000000444 ) ;
#178 = VERTEX_POINT ( 'NONE', #97 ) ;
#179 = DIRECTION ( 'NONE',  ( -0.000000000000000000, -0.000000000000000000, -1.000000000000000000 ) ) ;
#180 = CARTESIAN_POINT ( 'NONE',  ( 0.000000000000000000, 0.000000000000000000, 0.000000000000000000 ) ) ;
#181 = VERTEX_POINT ( 'NONE', #291 ) ;
#182 = VECTOR ( 'NONE', #172, 1000.000000000000000 ) ;
#183 = CARTESIAN_POINT ( 'NONE',  ( 0.000000000000000000, 0.000000000000000000, 165.0000000000000000 ) ) ;
#184 = DIRECTION ( 'NONE',  ( 0.000000000000000000, 0.000000000000000000, 1.000000000000000000 ) ) ;
#185 = ORIENTED_EDGE ( 'NONE', *, *, #250, .T. ) ;
#186 = ADVANCED_FACE ( 'NONE', ( #168 ), #133, .F. ) ;
#187 = CIRCLE ( 'NONE', #50, 6.000000000000000888 ) ;
#188 = COORDINATED_UNIVERSAL_TIME_OFFSET ( 1, 0, .AHEAD. ) ;
#189 = FACE_OUTER_BOUND ( 'NONE', #204, .T. ) ;
#190 = LOCAL_TIME ( 12, 9, 39.00000000000000000, #221 ) ;
#191 = CARTESIAN_POINT ( 'NONE',  ( 3.250000000000000444, 3.980102097228898231E-16, 165.0000000000000000 ) ) ;
#192 = CARTESIAN_POINT ( 'NONE',  ( 0.000000000000000000, 0.000000000000000000, 5.200000000000009948 ) ) ;
#193 = DIRECTION ( 'NONE',  ( -0.000000000000000000, -0.000000000000000000, -1.000000000000000000 ) ) ;
#194 = LINE ( 'NONE', #46, #182 ) ;
#195 = COORDINATED_UNIVERSAL_TIME_OFFSET ( 1, 0, .AHEAD. ) ;
#196 = CALENDAR_DATE ( 2022, 7, 7 ) ;
#197 = AXIS2_PLACEMENT_3D ( 'NONE', #231, #165, #208 ) ;
#198 = ORIENTED_EDGE ( 'NONE', *, *, #151, .F. ) ;
#199 = ORIENTED_EDGE ( 'NONE', *, *, #300, .T. ) ;
#200 = EDGE_CURVE ( 'NONE', #38, #206, #305, .T. ) ;
#201 = LOCAL_TIME ( 12, 9, 39.00000000000000000, #188 ) ;
#202 = ORIENTED_EDGE ( 'NONE', *, *, #125, .T. ) ;
#203 = DIRECTION ( 'NONE',  ( -1.000000000000000000, 1.224646799147350742E-16, 0.000000000000000000 ) ) ;
#204 = EDGE_LOOP ( 'NONE', ( #199, #111 ) ) ;
#205 = DESIGN_CONTEXT ( 'detailed design', #263, 'design' ) ;
#206 = VERTEX_POINT ( 'NONE', #52 ) ;
#207 = APPROVAL_ROLE ( '' ) ;
#208 = DIRECTION ( 'NONE',  ( 1.000000000000000000, 0.000000000000000000, 0.000000000000000000 ) ) ;
#209 = APPROVAL_STATUS ( 'not_yet_approved' ) ;
#210 = DIRECTION ( 'NONE',  ( 0.000000000000000000, 0.000000000000000000, 1.000000000000000000 ) ) ;
#211 = CARTESIAN_POINT ( 'NONE',  ( -3.450000000000000178, 4.225031457058368824E-16, 5.000000000000005329 ) ) ;
#212 = VECTOR ( 'NONE', #22, 1000.000000000000000 ) ;
#213 = APPLICATION_CONTEXT ( 'configuration controlled 3d designs of mechanical parts and assemblies' ) ;
#214 = CARTESIAN_POINT ( 'NONE',  ( -6.000000000000000888, 0.000000000000000000, 0.000000000000000000 ) ) ;
#215 = DIRECTION ( 'NONE',  ( -1.000000000000000000, 0.000000000000000000, 0.000000000000000000 ) ) ;
#216 = DATE_AND_TIME ( #196, #122 ) ;
#217 = CARTESIAN_POINT ( 'NONE',  ( 0.000000000000000000, 0.000000000000000000, 5.000000000000000000 ) ) ;
#218 = VECTOR ( 'NONE', #193, 1000.000000000000000 ) ;
#219 = APPROVAL_STATUS ( 'not_yet_approved' ) ;
#220 = CIRCLE ( 'NONE', #55, 3.250000000000000444 ) ;
#221 = COORDINATED_UNIVERSAL_TIME_OFFSET ( 1, 0, .AHEAD. ) ;
#222 = ORIENTED_EDGE ( 'NONE', *, *, #200, .F. ) ;
#223 = CIRCLE ( 'NONE', #90, 3.250000000000000444 ) ;
#224 = ORIENTED_EDGE ( 'NONE', *, *, #300, .F. ) ;
#225 = CC_DESIGN_DATE_AND_TIME_ASSIGNMENT ( #216, #53, ( #70 ) ) ;
#226 = CARTESIAN_POINT ( 'NONE',  ( -3.250000000000000444, 0.000000000000000000, 165.0000000000000000 ) ) ;
#227 = EDGE_CURVE ( 'NONE', #276, #38, #166, .T. ) ;
#228 = CARTESIAN_POINT ( 'NONE',  ( -3.450000000000000178, 4.225031457058368824E-16, 5.200000000000009948 ) ) ;
#229 = ORIENTED_EDGE ( 'NONE', *, *, #160, .T. ) ;
#230 = PERSON ( 'NEURÈENÝ', 'NEURÈENÝ', 'NEURÈENÝ', ('NEURÈENÝ'), ('NEURÈENÝ'), ('NEURÈENÝ') ) ;
#231 = CARTESIAN_POINT ( 'NONE',  ( 0.000000000000000000, 0.000000000000000000, 5.000000000000000000 ) ) ;
#232 = DATE_TIME_ROLE ( 'creation_date' ) ;
#233 = DIRECTION ( 'NONE',  ( -1.000000000000000000, 0.000000000000000000, 0.000000000000000000 ) ) ;
#234 = EDGE_CURVE ( 'NONE', #274, #249, #239, .T. ) ;
#235 = COORDINATED_UNIVERSAL_TIME_OFFSET ( 1, 0, .AHEAD. ) ;
#236 = CARTESIAN_POINT ( 'NONE',  ( 0.000000000000000000, 0.000000000000000000, 5.000000000000000000 ) ) ;
#237 = APPROVAL ( #209, 'NEURÈENÝ' ) ;
#238 = PERSON_AND_ORGANIZATION_ROLE ( 'classification_officer' ) ;
#239 = LINE ( 'NONE', #3, #212 ) ;
#240 = CIRCLE ( 'NONE', #39, 6.000000000000000888 ) ;
#241 = CARTESIAN_POINT ( 'NONE',  ( 3.450000000000000178, 0.000000000000000000, 5.000000000000005329 ) ) ;
#242 = CARTESIAN_POINT ( 'NONE',  ( 0.000000000000000000, 0.000000000000000000, 165.0000000000000000 ) ) ;
#243 = MANIFOLD_SOLID_BREP ( 'Zaoblit1', #136 ) ;
#244 = CARTESIAN_POINT ( 'NONE',  ( 0.000000000000000000, 0.000000000000000000, 5.000000000000000000 ) ) ;
#245 = EDGE_CURVE ( 'NONE', #178, #181, #194, .T. ) ;
#246 =( NAMED_UNIT ( * ) PLANE_ANGLE_UNIT ( ) SI_UNIT ( $, .RADIAN. ) );
#247 = APPROVAL_PERSON_ORGANIZATION ( #140, #60, #32 ) ;
#248 = APPLICATION_PROTOCOL_DEFINITION ( 'international standard', 'config_control_design', 1994, #263 ) ;
#249 = VERTEX_POINT ( 'NONE', #214 ) ;
#250 = EDGE_CURVE ( 'NONE', #254, #158, #266, .T. ) ;
#251 = ORIENTED_EDGE ( 'NONE', *, *, #268, .F. ) ;
#252 = AXIS2_PLACEMENT_3D ( 'NONE', #244, #265, #215 ) ;
#253 = ORIENTED_EDGE ( 'NONE', *, *, #6, .F. ) ;
#254 = VERTEX_POINT ( 'NONE', #241 ) ;
#255 = ADVANCED_FACE ( 'NONE', ( #24 ), #120, .T. ) ;
#256 = CYLINDRICAL_SURFACE ( 'NONE', #83, 3.250000000000000444 ) ;
#257 = FACE_OUTER_BOUND ( 'NONE', #298, .T. ) ;
#258 = DIRECTION ( 'NONE',  ( -0.000000000000000000, -0.000000000000000000, -1.000000000000000000 ) ) ;
#259 = PERSON_AND_ORGANIZATION ( #230, #159 ) ;
#260 = DIRECTION ( 'NONE',  ( 1.000000000000000000, 0.000000000000000000, -0.000000000000000000 ) ) ;
#261 = FACE_OUTER_BOUND ( 'NONE', #282, .T. ) ;
#262 = ADVANCED_FACE ( 'NONE', ( #261 ), #112, .F. ) ;
#263 = APPLICATION_CONTEXT ( 'configuration controlled 3d designs of mechanical parts and assemblies' ) ;
#264 = CIRCLE ( 'NONE', #12, 0.2000000000000000944 ) ;
#265 = DIRECTION ( 'NONE',  ( -0.000000000000000000, -0.000000000000000000, -1.000000000000000000 ) ) ;
#266 = CIRCLE ( 'NONE', #98, 3.450000000000000178 ) ;
#267 = CARTESIAN_POINT ( 'NONE',  ( 0.000000000000000000, 0.000000000000000000, 5.200000000000009948 ) ) ;
#268 = EDGE_CURVE ( 'NONE', #276, #43, #306, .T. ) ;
#269 =( LENGTH_UNIT ( ) NAMED_UNIT ( * ) SI_UNIT ( .MILLI., .METRE. ) );
#270 = APPROVAL_DATE_TIME ( #292, #60 ) ;
#271 = PRODUCT_RELATED_PRODUCT_CATEGORY ( 'detail', '', ( #132 ) ) ;
#272 = ORIENTED_EDGE ( 'NONE', *, *, #268, .T. ) ;
#273 = CC_DESIGN_PERSON_AND_ORGANIZATION_ASSIGNMENT ( #54, #127, ( #296 ) ) ;
#274 = VERTEX_POINT ( 'NONE', #99 ) ;
#275 = AXIS2_PLACEMENT_3D ( 'NONE', #192, #101, #285 ) ;
#276 = VERTEX_POINT ( 'NONE', #191 ) ;
#277 = AXIS2_PLACEMENT_3D ( 'NONE', #123, #78, #126 ) ;
#278 = ORIENTED_EDGE ( 'NONE', *, *, #169, .F. ) ;
#279 = ADVANCED_FACE ( 'NONE', ( #286, #170 ), #1, .T. ) ;
#280 = CARTESIAN_POINT ( 'NONE',  ( 3.450000000000000178, 0.000000000000000000, 5.200000000000009948 ) ) ;
#281 = CC_DESIGN_PERSON_AND_ORGANIZATION_ASSIGNMENT ( #77, #238, ( #70 ) ) ;
#282 = EDGE_LOOP ( 'NONE', ( #131, #299, #176, #34 ) ) ;
#283 = DATE_AND_TIME ( #119, #105 ) ;
#284 = LOCAL_TIME ( 12, 9, 39.00000000000000000, #195 ) ;
#285 = DIRECTION ( 'NONE',  ( 1.000000000000000000, 0.000000000000000000, 0.000000000000000000 ) ) ;
#286 = FACE_BOUND ( 'NONE', #84, .T. ) ;
#287 = CARTESIAN_POINT ( 'NONE',  ( 0.000000000000000000, 0.000000000000000000, 165.0000000000000000 ) ) ;
#288 = CARTESIAN_POINT ( 'NONE',  ( 0.000000000000000000, 0.000000000000000000, 5.000000000000000000 ) ) ;
#289 = VECTOR ( 'NONE', #100, 1000.000000000000000 ) ;
#290 = APPROVAL_STATUS ( 'not_yet_approved' ) ;
#291 = CARTESIAN_POINT ( 'NONE',  ( 6.000000000000000888, 7.347880794884120722E-16, 0.000000000000000000 ) ) ;
#292 = DATE_AND_TIME ( #29, #284 ) ;
#293 = EDGE_LOOP ( 'NONE', ( #7, #42 ) ) ;
#294 = ORIENTED_EDGE ( 'NONE', *, *, #130, .T. ) ;
#295 = AXIS2_PLACEMENT_3D ( 'NONE', #163, #258, #233 ) ;
#296 = PRODUCT_DEFINITION_FORMATION_WITH_SPECIFIED_SOURCE ( 'LIBOVOLNÝ', '', #132, .NOT_KNOWN. ) ;
#297 = FACE_OUTER_BOUND ( 'NONE', #36, .T. ) ;
#298 = EDGE_LOOP ( 'NONE', ( #251, #224, #56, #229 ) ) ;
#299 = ORIENTED_EDGE ( 'NONE', *, *, #104, .T. ) ;
#300 = EDGE_CURVE ( 'NONE', #38, #276, #220, .T. ) ;
#301 = AXIS2_PLACEMENT_3D ( 'NONE', #287, #72, #167 ) ;
#302 = CYLINDRICAL_SURFACE ( 'NONE', #295, 3.250000000000000444 ) ;
#303 = CARTESIAN_POINT ( 'NONE',  ( 0.000000000000000000, 0.000000000000000000, 0.000000000000000000 ) ) ;
#304 = APPROVAL_ROLE ( '' ) ;
#305 = LINE ( 'NONE', #74, #218 ) ;
#306 = LINE ( 'NONE', #307, #289 ) ;
#307 = CARTESIAN_POINT ( 'NONE',  ( 3.250000000000000444, 3.980102097228898231E-16, 165.0000000000000000 ) ) ;
ENDSEC;
END-ISO-10303-21;
