ISO-10303-21;
HEADER;
FILE_DESCRIPTION (( 'STEP AP203' ),
    '1' );
FILE_NAME ('1f6a.STEP',
    '2022-07-07T10:17:09',
    ( '' ),
    ( '' ),
    'SwSTEP 2.0',
    'SolidWorks 2019',
    '' );
FILE_SCHEMA (( 'CONFIG_CONTROL_DESIGN' ));
ENDSEC;

DATA;
#1 = AXIS2_PLACEMENT_3D ( 'NONE', #69, #149, #290 ) ;
#2 = DIRECTION ( 'NONE',  ( 1.000000000000000000, 0.000000000000000000, 0.000000000000000000 ) ) ;
#3 = PLANE ( 'NONE',  #262 ) ;
#4 = DIRECTION ( 'NONE',  ( -0.000000000000000000, -0.000000000000000000, -1.000000000000000000 ) ) ;
#5 = EDGE_CURVE ( 'NONE', #305, #185, #226, .T. ) ;
#6 = DESIGN_CONTEXT ( 'detailed design', #292, 'design' ) ;
#7 =( NAMED_UNIT ( * ) SI_UNIT ( $, .STERADIAN. ) SOLID_ANGLE_UNIT ( ) );
#8 = CIRCLE ( 'NONE', #127, 2.600000000000000089 ) ;
#9 = APPLICATION_PROTOCOL_DEFINITION ( 'international standard', 'config_control_design', 1994, #292 ) ;
#10 = CYLINDRICAL_SURFACE ( 'NONE', #92, 2.600000000000000089 ) ;
#11 = APPROVAL_DATE_TIME ( #179, #170 ) ;
#12 = CARTESIAN_POINT ( 'NONE',  ( -2.799999999999999822, 3.429011037612589276E-16, 2.999999999999990674 ) ) ;
#13 = DIRECTION ( 'NONE',  ( 0.000000000000000000, 0.000000000000000000, 1.000000000000000000 ) ) ;
#14 = DATE_TIME_ROLE ( 'creation_date' ) ;
#15 = ORIENTED_EDGE ( 'NONE', *, *, #304, .T. ) ;
#16 = EDGE_LOOP ( 'NONE', ( #146, #56 ) ) ;
#17 = DIRECTION ( 'NONE',  ( 0.000000000000000000, 0.000000000000000000, 1.000000000000000000 ) ) ;
#18 = DIRECTION ( 'NONE',  ( 0.000000000000000000, 0.000000000000000000, 1.000000000000000000 ) ) ;
#19 = AXIS2_PLACEMENT_3D ( 'NONE', #235, #18, #124 ) ;
#20 = AXIS2_PLACEMENT_3D ( 'NONE', #172, #94, #265 ) ;
#21 = CARTESIAN_POINT ( 'NONE',  ( 5.000000000000000000, 6.123233995736766282E-16, 0.000000000000000000 ) ) ;
#22 = PLANE ( 'NONE',  #20 ) ;
#23 = DIRECTION ( 'NONE',  ( -0.000000000000000000, -0.000000000000000000, -1.000000000000000000 ) ) ;
#24 = APPROVAL ( #34, 'NEURÈENÝ' ) ;
#25 = VECTOR ( 'NONE', #243, 1000.000000000000000 ) ;
#26 = DIRECTION ( 'NONE',  ( -0.000000000000000000, -0.000000000000000000, -1.000000000000000000 ) ) ;
#27 = FACE_OUTER_BOUND ( 'NONE', #148, .T. ) ;
#28 = APPROVAL ( #204, 'NEURÈENÝ' ) ;
#29 = COORDINATED_UNIVERSAL_TIME_OFFSET ( 1, 0, .AHEAD. ) ;
#30 = AXIS2_PLACEMENT_3D ( 'NONE', #155, #272, #244 ) ;
#31 = DIRECTION ( 'NONE',  ( 1.000000000000000000, 0.000000000000000000, -0.000000000000000000 ) ) ;
#32 = APPLICATION_PROTOCOL_DEFINITION ( 'international standard', 'config_control_design', 1994, #171 ) ;
#33 = EDGE_CURVE ( 'NONE', #233, #86, #220, .T. ) ;
#34 = APPROVAL_STATUS ( 'not_yet_approved' ) ;
#35 =( LENGTH_UNIT ( ) NAMED_UNIT ( * ) SI_UNIT ( .MILLI., .METRE. ) );
#36 = PRODUCT_DEFINITION_FORMATION_WITH_SPECIFIED_SOURCE ( 'LIBOVOLNÝ', '', #191, .NOT_KNOWN. ) ;
#37 = COORDINATED_UNIVERSAL_TIME_OFFSET ( 1, 0, .AHEAD. ) ;
#38 = DIRECTION ( 'NONE',  ( 0.000000000000000000, 0.000000000000000000, 1.000000000000000000 ) ) ;
#39 = ORIENTED_EDGE ( 'NONE', *, *, #110, .F. ) ;
#40 = VERTEX_POINT ( 'NONE', #254 ) ;
#41 = DIRECTION ( 'NONE',  ( 1.000000000000000000, 0.000000000000000000, 0.000000000000000000 ) ) ;
#42 = ORIENTED_EDGE ( 'NONE', *, *, #304, .F. ) ;
#43 = FACE_OUTER_BOUND ( 'NONE', #16, .T. ) ;
#44 = DIRECTION ( 'NONE',  ( 1.000000000000000000, 0.000000000000000000, 0.000000000000000000 ) ) ;
#45 = EDGE_CURVE ( 'NONE', #185, #305, #255, .T. ) ;
#46 = CARTESIAN_POINT ( 'NONE',  ( -2.600000000000000089, 0.000000000000000000, 3.199999999999980638 ) ) ;
#47 = CARTESIAN_POINT ( 'NONE',  ( 0.000000000000000000, 0.000000000000000000, 3.199999999999980638 ) ) ;
#48 = DIRECTION ( 'NONE',  ( 0.000000000000000000, 0.000000000000000000, 1.000000000000000000 ) ) ;
#49 = CALENDAR_DATE ( 2022, 7, 7 ) ;
#50 = CALENDAR_DATE ( 2022, 7, 7 ) ;
#51 = SHAPE_DEFINITION_REPRESENTATION ( #90, #123 ) ;
#52 = DIRECTION ( 'NONE',  ( -1.000000000000000000, 0.000000000000000000, 0.000000000000000000 ) ) ;
#53 = ORIENTED_EDGE ( 'NONE', *, *, #247, .T. ) ;
#54 = MECHANICAL_CONTEXT ( 'NONE', #171, 'mechanical' ) ;
#55 = EDGE_CURVE ( 'NONE', #40, #278, #173, .T. ) ;
#56 = ORIENTED_EDGE ( 'NONE', *, *, #275, .T. ) ;
#57 = ORIENTED_EDGE ( 'NONE', *, *, #55, .T. ) ;
#58 = ORIENTED_EDGE ( 'NONE', *, *, #162, .F. ) ;
#59 = LOCAL_TIME ( 12, 17, 9.000000000000000000, #29 ) ;
#60 = PRODUCT_RELATED_PRODUCT_CATEGORY ( 'detail', '', ( #191 ) ) ;
#61 = CARTESIAN_POINT ( 'NONE',  ( 0.000000000000000000, 0.000000000000000000, 3.000000000000000000 ) ) ;
#62 = EDGE_CURVE ( 'NONE', #40, #189, #258, .T. ) ;
#63 = ORIENTED_EDGE ( 'NONE', *, *, #74, .F. ) ;
#64 = FACE_BOUND ( 'NONE', #83, .T. ) ;
#65 = AXIS2_PLACEMENT_3D ( 'NONE', #287, #89, #197 ) ;
#66 = CYLINDRICAL_SURFACE ( 'NONE', #245, 2.600000000000000089 ) ;
#67 = DIRECTION ( 'NONE',  ( 0.000000000000000000, 0.000000000000000000, 1.000000000000000000 ) ) ;
#68 = EDGE_CURVE ( 'NONE', #86, #185, #72, .T. ) ;
#69 = CARTESIAN_POINT ( 'NONE',  ( 0.000000000000000000, 0.000000000000000000, 3.000000000000000000 ) ) ;
#70 = AXIS2_PLACEMENT_3D ( 'NONE', #147, #215, #301 ) ;
#71 = VECTOR ( 'NONE', #241, 1000.000000000000000 ) ;
#72 = LINE ( 'NONE', #95, #198 ) ;
#73 = LOCAL_TIME ( 12, 17, 9.000000000000000000, #296 ) ;
#74 = EDGE_CURVE ( 'NONE', #211, #236, #8, .T. ) ;
#75 = CARTESIAN_POINT ( 'NONE',  ( 0.000000000000000000, 0.000000000000000000, 3.000000000000000000 ) ) ;
#76 = CLOSED_SHELL ( 'NONE', ( #288, #267, #109, #130, #184, #242, #108, #112, #101 ) ) ;
#77 = CARTESIAN_POINT ( 'NONE',  ( 0.000000000000000000, 0.000000000000000000, 0.000000000000000000 ) ) ;
#78 = PERSON_AND_ORGANIZATION ( #206, #93 ) ;
#79 = DIRECTION ( 'NONE',  ( 1.000000000000000000, 0.000000000000000000, 0.000000000000000000 ) ) ;
#80 = ORIENTED_EDGE ( 'NONE', *, *, #62, .T. ) ;
#81 = APPROVAL_DATE_TIME ( #250, #24 ) ;
#82 = ORIENTED_EDGE ( 'NONE', *, *, #132, .F. ) ;
#83 = EDGE_LOOP ( 'NONE', ( #234, #161 ) ) ;
#84 = DIRECTION ( 'NONE',  ( 1.000000000000000000, 0.000000000000000000, 0.000000000000000000 ) ) ;
#85 = AXIS2_PLACEMENT_3D ( 'NONE', #282, #17, #84 ) ;
#86 = VERTEX_POINT ( 'NONE', #289 ) ;
#87 = EDGE_CURVE ( 'NONE', #211, #40, #154, .T. ) ;
#88 = DIRECTION ( 'NONE',  ( -1.000000000000000000, 0.000000000000000000, 0.000000000000000000 ) ) ;
#89 = DIRECTION ( 'NONE',  ( 0.000000000000000000, 0.000000000000000000, 1.000000000000000000 ) ) ;
#90 = PRODUCT_DEFINITION_SHAPE ( 'NONE', 'NONE',  #121 ) ;
#91 = AXIS2_PLACEMENT_3D ( 'NONE', #47, #167, #192 ) ;
#92 = AXIS2_PLACEMENT_3D ( 'NONE', #136, #105, #52 ) ;
#93 = ORGANIZATION ( 'NEURÈENÝ', 'NEURÈENÝ', '' ) ;
#94 = DIRECTION ( 'NONE',  ( 0.000000000000000000, 0.000000000000000000, 1.000000000000000000 ) ) ;
#95 = CARTESIAN_POINT ( 'NONE',  ( 5.000000000000000000, 6.123233995736766282E-16, 3.000000000000000000 ) ) ;
#96 = CC_DESIGN_DATE_AND_TIME_ASSIGNMENT ( #135, #300, ( #145 ) ) ;
#97 = CARTESIAN_POINT ( 'NONE',  ( 0.000000000000000000, 0.000000000000000000, 403.0000000000000000 ) ) ;
#98 = CIRCLE ( 'NONE', #156, 0.2000000000000000944 ) ;
#99 = APPROVAL_PERSON_ORGANIZATION ( #228, #24, #159 ) ;
#100 = EDGE_CURVE ( 'NONE', #189, #40, #210, .T. ) ;
#101 = ADVANCED_FACE ( 'NONE', ( #196 ), #232, .F. ) ;
#102 = DATE_AND_TIME ( #49, #246 ) ;
#103 = CC_DESIGN_PERSON_AND_ORGANIZATION_ASSIGNMENT ( #183, #297, ( #121 ) ) ;
#104 = PERSON_AND_ORGANIZATION_ROLE ( 'creator' ) ;
#105 = DIRECTION ( 'NONE',  ( -0.000000000000000000, -0.000000000000000000, -1.000000000000000000 ) ) ;
#106 = PERSON_AND_ORGANIZATION ( #206, #93 ) ;
#107 = EDGE_LOOP ( 'NONE', ( #166, #299 ) ) ;
#108 = ADVANCED_FACE ( 'NONE', ( #238 ), #66, .T. ) ;
#109 = ADVANCED_FACE ( 'NONE', ( #150 ), #122, .T. ) ;
#110 = EDGE_CURVE ( 'NONE', #236, #189, #153, .T. ) ;
#111 = ORIENTED_EDGE ( 'NONE', *, *, #247, .F. ) ;
#112 = ADVANCED_FACE ( 'NONE', ( #27 ), #195, .T. ) ;
#113 = EDGE_LOOP ( 'NONE', ( #277, #53, #82, #283 ) ) ;
#114 = CIRCLE ( 'NONE', #286, 2.799999999999999822 ) ;
#115 = APPROVAL_PERSON_ORGANIZATION ( #229, #170, #139 ) ;
#116 = ORIENTED_EDGE ( 'NONE', *, *, #45, .T. ) ;
#117 = CC_DESIGN_PERSON_AND_ORGANIZATION_ASSIGNMENT ( #199, #291, ( #191 ) ) ;
#118 = EDGE_LOOP ( 'NONE', ( #111, #119, #57, #182 ) ) ;
#119 = ORIENTED_EDGE ( 'NONE', *, *, #62, .F. ) ;
#120 = CC_DESIGN_SECURITY_CLASSIFICATION ( #145, ( #36 ) ) ;
#121 = PRODUCT_DEFINITION ( 'NEZNÁMÝ', '', #36, #6 ) ;
#122 = CYLINDRICAL_SURFACE ( 'NONE', #1, 5.000000000000000000 ) ;
#123 = ADVANCED_BREP_SHAPE_REPRESENTATION ( '1f6a', ( #237, #30 ), #281 ) ;
#124 = DIRECTION ( 'NONE',  ( 1.000000000000000000, 0.000000000000000000, 0.000000000000000000 ) ) ;
#125 = CYLINDRICAL_SURFACE ( 'NONE', #280, 5.000000000000000000 ) ;
#126 = AXIS2_PLACEMENT_3D ( 'NONE', #259, #231, #41 ) ;
#127 = AXIS2_PLACEMENT_3D ( 'NONE', #239, #223, #44 ) ;
#128 = CARTESIAN_POINT ( 'NONE',  ( -2.600000000000000089, 0.000000000000000000, 403.0000000000000000 ) ) ;
#129 = DIRECTION ( 'NONE',  ( -0.000000000000000000, -0.000000000000000000, -1.000000000000000000 ) ) ;
#130 = ADVANCED_FACE ( 'NONE', ( #174 ), #125, .T. ) ;
#131 = UNCERTAINTY_MEASURE_WITH_UNIT (LENGTH_MEASURE( 1.000000000000000082E-05 ), #35, 'distance_accuracy_value', 'NONE');
#132 = EDGE_CURVE ( 'NONE', #278, #302, #269, .T. ) ;
#133 = CC_DESIGN_DATE_AND_TIME_ASSIGNMENT ( #102, #14, ( #121 ) ) ;
#134 =( NAMED_UNIT ( * ) PLANE_ANGLE_UNIT ( ) SI_UNIT ( $, .RADIAN. ) );
#135 = DATE_AND_TIME ( #230, #178 ) ;
#136 = CARTESIAN_POINT ( 'NONE',  ( 0.000000000000000000, 0.000000000000000000, 403.0000000000000000 ) ) ;
#137 = LINE ( 'NONE', #202, #25 ) ;
#138 = CIRCLE ( 'NONE', #251, 2.600000000000000089 ) ;
#139 = APPROVAL_ROLE ( '' ) ;
#140 = CALENDAR_DATE ( 2022, 7, 7 ) ;
#141 = ORIENTED_EDGE ( 'NONE', *, *, #74, .T. ) ;
#142 = CC_DESIGN_PERSON_AND_ORGANIZATION_ASSIGNMENT ( #78, #249, ( #145 ) ) ;
#143 = ORIENTED_EDGE ( 'NONE', *, *, #5, .T. ) ;
#144 = AXIS2_PLACEMENT_3D ( 'NONE', #97, #67, #169 ) ;
#145 = SECURITY_CLASSIFICATION ( '', '', #201 ) ;
#146 = ORIENTED_EDGE ( 'NONE', *, *, #33, .T. ) ;
#147 = CARTESIAN_POINT ( 'NONE',  ( 2.799999999999999822, 0.000000000000000000, 3.199999999999980638 ) ) ;
#148 = EDGE_LOOP ( 'NONE', ( #164, #141 ) ) ;
#149 = DIRECTION ( 'NONE',  ( -0.000000000000000000, -0.000000000000000000, -1.000000000000000000 ) ) ;
#150 = FACE_OUTER_BOUND ( 'NONE', #279, .T. ) ;
#151 = CARTESIAN_POINT ( 'NONE',  ( -5.000000000000000000, 0.000000000000000000, 3.000000000000000000 ) ) ;
#152 = CC_DESIGN_APPROVAL ( #28, ( #121 ) ) ;
#153 = LINE ( 'NONE', #217, #71 ) ;
#154 = LINE ( 'NONE', #266, #168 ) ;
#155 = CARTESIAN_POINT ( 'NONE',  ( 0.000000000000000000, 0.000000000000000000, 0.000000000000000000 ) ) ;
#156 = AXIS2_PLACEMENT_3D ( 'NONE', #158, #205, #273 ) ;
#157 = FACE_OUTER_BOUND ( 'NONE', #165, .T. ) ;
#158 = CARTESIAN_POINT ( 'NONE',  ( -2.799999999999999822, 3.429011037612588783E-16, 3.199999999999980638 ) ) ;
#159 = APPROVAL_ROLE ( '' ) ;
#160 = APPROVAL_STATUS ( 'not_yet_approved' ) ;
#161 = ORIENTED_EDGE ( 'NONE', *, *, #180, .T. ) ;
#162 = EDGE_CURVE ( 'NONE', #236, #211, #138, .T. ) ;
#163 = ORIENTED_EDGE ( 'NONE', *, *, #87, .T. ) ;
#164 = ORIENTED_EDGE ( 'NONE', *, *, #162, .T. ) ;
#165 = EDGE_LOOP ( 'NONE', ( #63, #163, #80, #39 ) ) ;
#166 = ORIENTED_EDGE ( 'NONE', *, *, #5, .F. ) ;
#167 = DIRECTION ( 'NONE',  ( 0.000000000000000000, 0.000000000000000000, 1.000000000000000000 ) ) ;
#168 = VECTOR ( 'NONE', #129, 1000.000000000000000 ) ;
#169 = DIRECTION ( 'NONE',  ( 1.000000000000000000, 0.000000000000000000, -0.000000000000000000 ) ) ;
#170 = APPROVAL ( #160, 'NEURÈENÝ' ) ;
#171 = APPLICATION_CONTEXT ( 'configuration controlled 3d designs of mechanical parts and assemblies' ) ;
#172 = CARTESIAN_POINT ( 'NONE',  ( 0.000000000000000000, 0.000000000000000000, 3.000000000000000000 ) ) ;
#173 = CIRCLE ( 'NONE', #70, 0.2000000000000000944 ) ;
#174 = FACE_OUTER_BOUND ( 'NONE', #188, .T. ) ;
#175 = DATE_AND_TIME ( #50, #59 ) ;
#176 = APPROVAL_DATE_TIME ( #175, #28 ) ;
#177 = PERSON_AND_ORGANIZATION ( #206, #93 ) ;
#178 = LOCAL_TIME ( 12, 17, 9.000000000000000000, #209 ) ;
#179 = DATE_AND_TIME ( #252, #216 ) ;
#180 = EDGE_CURVE ( 'NONE', #302, #278, #114, .T. ) ;
#181 = FACE_OUTER_BOUND ( 'NONE', #113, .T. ) ;
#182 = ORIENTED_EDGE ( 'NONE', *, *, #180, .F. ) ;
#183 = PERSON_AND_ORGANIZATION ( #206, #93 ) ;
#184 = ADVANCED_FACE ( 'NONE', ( #64, #43 ), #22, .T. ) ;
#185 = VERTEX_POINT ( 'NONE', #21 ) ;
#186 = DIRECTION ( 'NONE',  ( 1.000000000000000000, 0.000000000000000000, 0.000000000000000000 ) ) ;
#187 = ORIENTED_EDGE ( 'NONE', *, *, #33, .F. ) ;
#188 = EDGE_LOOP ( 'NONE', ( #208, #187, #15, #143 ) ) ;
#189 = VERTEX_POINT ( 'NONE', #46 ) ;
#190 = DIRECTION ( 'NONE',  ( -0.000000000000000000, -0.000000000000000000, -1.000000000000000000 ) ) ;
#191 = PRODUCT ( '1f6a', '1f6a', '', ( #54 ) ) ;
#192 = DIRECTION ( 'NONE',  ( 1.000000000000000000, 0.000000000000000000, 0.000000000000000000 ) ) ;
#193 = CIRCLE ( 'NONE', #221, 5.000000000000000000 ) ;
#194 = CC_DESIGN_PERSON_AND_ORGANIZATION_ASSIGNMENT ( #274, #293, ( #36 ) ) ;
#195 = PLANE ( 'NONE',  #144 ) ;
#196 = FACE_OUTER_BOUND ( 'NONE', #118, .T. ) ;
#197 = DIRECTION ( 'NONE',  ( 1.000000000000000000, 0.000000000000000000, 0.000000000000000000 ) ) ;
#198 = VECTOR ( 'NONE', #4, 1000.000000000000000 ) ;
#199 = PERSON_AND_ORGANIZATION ( #206, #93 ) ;
#200 = DIRECTION ( 'NONE',  ( 1.000000000000000000, 0.000000000000000000, 0.000000000000000000 ) ) ;
#201 = SECURITY_CLASSIFICATION_LEVEL ( 'unclassified' ) ;
#202 = CARTESIAN_POINT ( 'NONE',  ( -5.000000000000000000, 0.000000000000000000, 3.000000000000000000 ) ) ;
#203 = CC_DESIGN_APPROVAL ( #24, ( #145 ) ) ;
#204 = APPROVAL_STATUS ( 'not_yet_approved' ) ;
#205 = DIRECTION ( 'NONE',  ( 1.224646799147353207E-16, 1.000000000000000000, -0.000000000000000000 ) ) ;
#206 = PERSON ( 'NEURÈENÝ', 'NEURÈENÝ', 'NEURÈENÝ', ('NEURÈENÝ'), ('NEURÈENÝ'), ('NEURÈENÝ') ) ;
#207 = CC_DESIGN_PERSON_AND_ORGANIZATION_ASSIGNMENT ( #177, #104, ( #36 ) ) ;
#208 = ORIENTED_EDGE ( 'NONE', *, *, #68, .F. ) ;
#209 = COORDINATED_UNIVERSAL_TIME_OFFSET ( 1, 0, .AHEAD. ) ;
#210 = CIRCLE ( 'NONE', #65, 2.600000000000000089 ) ;
#211 = VERTEX_POINT ( 'NONE', #307 ) ;
#212 = APPROVAL_PERSON_ORGANIZATION ( #106, #28, #276 ) ;
#213 = ORIENTED_EDGE ( 'NONE', *, *, #100, .T. ) ;
#214 = EDGE_LOOP ( 'NONE', ( #303, #58, #253, #213 ) ) ;
#215 = DIRECTION ( 'NONE',  ( 0.000000000000000000, -1.000000000000000000, 0.000000000000000000 ) ) ;
#216 = LOCAL_TIME ( 12, 17, 9.000000000000000000, #37 ) ;
#217 = CARTESIAN_POINT ( 'NONE',  ( -2.600000000000000089, 0.000000000000000000, 403.0000000000000000 ) ) ;
#218 = CARTESIAN_POINT ( 'NONE',  ( 0.000000000000000000, 0.000000000000000000, 3.000000000000000000 ) ) ;
#219 = DIRECTION ( 'NONE',  ( 1.000000000000000000, 0.000000000000000000, 0.000000000000000000 ) ) ;
#220 = CIRCLE ( 'NONE', #268, 5.000000000000000000 ) ;
#221 = AXIS2_PLACEMENT_3D ( 'NONE', #75, #224, #200 ) ;
#222 = FACE_OUTER_BOUND ( 'NONE', #107, .T. ) ;
#223 = DIRECTION ( 'NONE',  ( 0.000000000000000000, 0.000000000000000000, 1.000000000000000000 ) ) ;
#224 = DIRECTION ( 'NONE',  ( 0.000000000000000000, 0.000000000000000000, 1.000000000000000000 ) ) ;
#225 = CARTESIAN_POINT ( 'NONE',  ( 2.799999999999999822, 0.000000000000000000, 2.999999999999990674 ) ) ;
#226 = CIRCLE ( 'NONE', #85, 5.000000000000000000 ) ;
#227 = AXIS2_PLACEMENT_3D ( 'NONE', #261, #264, #219 ) ;
#228 = PERSON_AND_ORGANIZATION ( #206, #93 ) ;
#229 = PERSON_AND_ORGANIZATION ( #206, #93 ) ;
#230 = CALENDAR_DATE ( 2022, 7, 7 ) ;
#231 = DIRECTION ( 'NONE',  ( 0.000000000000000000, 0.000000000000000000, 1.000000000000000000 ) ) ;
#232 = TOROIDAL_SURFACE ( 'NONE', #91, 2.799999999999999822, 0.2000000000000000111 ) ;
#233 = VERTEX_POINT ( 'NONE', #151 ) ;
#234 = ORIENTED_EDGE ( 'NONE', *, *, #132, .T. ) ;
#235 = CARTESIAN_POINT ( 'NONE',  ( 0.000000000000000000, 0.000000000000000000, 3.199999999999980638 ) ) ;
#236 = VERTEX_POINT ( 'NONE', #128 ) ;
#237 = MANIFOLD_SOLID_BREP ( 'Zaoblit1', #76 ) ;
#238 = FACE_OUTER_BOUND ( 'NONE', #214, .T. ) ;
#239 = CARTESIAN_POINT ( 'NONE',  ( 0.000000000000000000, 0.000000000000000000, 403.0000000000000000 ) ) ;
#240 = DIRECTION ( 'NONE',  ( 1.000000000000000000, 0.000000000000000000, 0.000000000000000000 ) ) ;
#241 = DIRECTION ( 'NONE',  ( -0.000000000000000000, -0.000000000000000000, -1.000000000000000000 ) ) ;
#242 = ADVANCED_FACE ( 'NONE', ( #222 ), #3, .F. ) ;
#243 = DIRECTION ( 'NONE',  ( -0.000000000000000000, -0.000000000000000000, -1.000000000000000000 ) ) ;
#244 = DIRECTION ( 'NONE',  ( 1.000000000000000000, 0.000000000000000000, 0.000000000000000000 ) ) ;
#245 = AXIS2_PLACEMENT_3D ( 'NONE', #285, #23, #88 ) ;
#246 = LOCAL_TIME ( 12, 17, 9.000000000000000000, #271 ) ;
#247 = EDGE_CURVE ( 'NONE', #189, #302, #98, .T. ) ;
#248 = CARTESIAN_POINT ( 'NONE',  ( -5.000000000000000000, 0.000000000000000000, 0.000000000000000000 ) ) ;
#249 = PERSON_AND_ORGANIZATION_ROLE ( 'classification_officer' ) ;
#250 = DATE_AND_TIME ( #140, #73 ) ;
#251 = AXIS2_PLACEMENT_3D ( 'NONE', #270, #48, #2 ) ;
#252 = CALENDAR_DATE ( 2022, 7, 7 ) ;
#253 = ORIENTED_EDGE ( 'NONE', *, *, #110, .T. ) ;
#254 = CARTESIAN_POINT ( 'NONE',  ( 2.600000000000000089, 3.184081677783118191E-16, 3.199999999999980638 ) ) ;
#255 = CIRCLE ( 'NONE', #126, 5.000000000000000000 ) ;
#256 = TOROIDAL_SURFACE ( 'NONE', #295, 2.799999999999999822, 0.2000000000000000111 ) ;
#257 = ORIENTED_EDGE ( 'NONE', *, *, #275, .F. ) ;
#258 = CIRCLE ( 'NONE', #19, 2.600000000000000089 ) ;
#259 = CARTESIAN_POINT ( 'NONE',  ( 0.000000000000000000, 0.000000000000000000, 0.000000000000000000 ) ) ;
#260 = ORIENTED_EDGE ( 'NONE', *, *, #68, .T. ) ;
#261 = CARTESIAN_POINT ( 'NONE',  ( 0.000000000000000000, 0.000000000000000000, 3.000000000000000000 ) ) ;
#262 = AXIS2_PLACEMENT_3D ( 'NONE', #77, #294, #31 ) ;
#263 = CC_DESIGN_APPROVAL ( #170, ( #36 ) ) ;
#264 = DIRECTION ( 'NONE',  ( -0.000000000000000000, -0.000000000000000000, -1.000000000000000000 ) ) ;
#265 = DIRECTION ( 'NONE',  ( 1.000000000000000000, 0.000000000000000000, -0.000000000000000000 ) ) ;
#266 = CARTESIAN_POINT ( 'NONE',  ( 2.600000000000000089, 3.184081677783118191E-16, 403.0000000000000000 ) ) ;
#267 = ADVANCED_FACE ( 'NONE', ( #157 ), #10, .T. ) ;
#268 = AXIS2_PLACEMENT_3D ( 'NONE', #61, #38, #186 ) ;
#269 = CIRCLE ( 'NONE', #227, 2.799999999999999822 ) ;
#270 = CARTESIAN_POINT ( 'NONE',  ( 0.000000000000000000, 0.000000000000000000, 403.0000000000000000 ) ) ;
#271 = COORDINATED_UNIVERSAL_TIME_OFFSET ( 1, 0, .AHEAD. ) ;
#272 = DIRECTION ( 'NONE',  ( 0.000000000000000000, 0.000000000000000000, 1.000000000000000000 ) ) ;
#273 = DIRECTION ( 'NONE',  ( -1.000000000000000000, 1.224646799147353207E-16, 0.000000000000000000 ) ) ;
#274 = PERSON_AND_ORGANIZATION ( #206, #93 ) ;
#275 = EDGE_CURVE ( 'NONE', #86, #233, #193, .T. ) ;
#276 = APPROVAL_ROLE ( '' ) ;
#277 = ORIENTED_EDGE ( 'NONE', *, *, #100, .F. ) ;
#278 = VERTEX_POINT ( 'NONE', #225 ) ;
#279 = EDGE_LOOP ( 'NONE', ( #257, #260, #116, #42 ) ) ;
#280 = AXIS2_PLACEMENT_3D ( 'NONE', #306, #190, #284 ) ;
#281 =( GEOMETRIC_REPRESENTATION_CONTEXT ( 3 ) GLOBAL_UNCERTAINTY_ASSIGNED_CONTEXT ( ( #131 ) ) GLOBAL_UNIT_ASSIGNED_CONTEXT ( ( #35, #134, #7 ) ) REPRESENTATION_CONTEXT ( 'NONE', 'WORKASPACE' ) );
#282 = CARTESIAN_POINT ( 'NONE',  ( 0.000000000000000000, 0.000000000000000000, 0.000000000000000000 ) ) ;
#283 = ORIENTED_EDGE ( 'NONE', *, *, #55, .F. ) ;
#284 = DIRECTION ( 'NONE',  ( -1.000000000000000000, 0.000000000000000000, 0.000000000000000000 ) ) ;
#285 = CARTESIAN_POINT ( 'NONE',  ( 0.000000000000000000, 0.000000000000000000, 403.0000000000000000 ) ) ;
#286 = AXIS2_PLACEMENT_3D ( 'NONE', #218, #26, #240 ) ;
#287 = CARTESIAN_POINT ( 'NONE',  ( 0.000000000000000000, 0.000000000000000000, 3.199999999999980638 ) ) ;
#288 = ADVANCED_FACE ( 'NONE', ( #181 ), #256, .F. ) ;
#289 = CARTESIAN_POINT ( 'NONE',  ( 5.000000000000000000, 6.123233995736766282E-16, 3.000000000000000000 ) ) ;
#290 = DIRECTION ( 'NONE',  ( -1.000000000000000000, 0.000000000000000000, 0.000000000000000000 ) ) ;
#291 = PERSON_AND_ORGANIZATION_ROLE ( 'design_owner' ) ;
#292 = APPLICATION_CONTEXT ( 'configuration controlled 3d designs of mechanical parts and assemblies' ) ;
#293 = PERSON_AND_ORGANIZATION_ROLE ( 'design_supplier' ) ;
#294 = DIRECTION ( 'NONE',  ( 0.000000000000000000, 0.000000000000000000, 1.000000000000000000 ) ) ;
#295 = AXIS2_PLACEMENT_3D ( 'NONE', #298, #13, #79 ) ;
#296 = COORDINATED_UNIVERSAL_TIME_OFFSET ( 1, 0, .AHEAD. ) ;
#297 = PERSON_AND_ORGANIZATION_ROLE ( 'creator' ) ;
#298 = CARTESIAN_POINT ( 'NONE',  ( 0.000000000000000000, 0.000000000000000000, 3.199999999999980638 ) ) ;
#299 = ORIENTED_EDGE ( 'NONE', *, *, #45, .F. ) ;
#300 = DATE_TIME_ROLE ( 'classification_date' ) ;
#301 = DIRECTION ( 'NONE',  ( 0.000000000000000000, 0.000000000000000000, -1.000000000000000000 ) ) ;
#302 = VERTEX_POINT ( 'NONE', #12 ) ;
#303 = ORIENTED_EDGE ( 'NONE', *, *, #87, .F. ) ;
#304 = EDGE_CURVE ( 'NONE', #233, #305, #137, .T. ) ;
#305 = VERTEX_POINT ( 'NONE', #248 ) ;
#306 = CARTESIAN_POINT ( 'NONE',  ( 0.000000000000000000, 0.000000000000000000, 3.000000000000000000 ) ) ;
#307 = CARTESIAN_POINT ( 'NONE',  ( 2.600000000000000089, 3.184081677783118191E-16, 403.0000000000000000 ) ) ;
ENDSEC;
END-ISO-10303-21;
