ISO-10303-21;
HEADER;
FILE_DESCRIPTION (( 'STEP AP203' ),
    '1' );
FILE_NAME ('7138.STEP',
    '2022-07-07T10:07:19',
    ( '' ),
    ( '' ),
    'SwSTEP 2.0',
    'SolidWorks 2019',
    '' );
FILE_SCHEMA (( 'CONFIG_CONTROL_DESIGN' ));
ENDSEC;

DATA;
#1 = EDGE_CURVE ( 'NONE', #253, #9, #19, .T. ) ;
#2 = CARTESIAN_POINT ( 'NONE',  ( 0.000000000000000000, 0.000000000000000000, 205.0000000000000284 ) ) ;
#3 = DIRECTION ( 'NONE',  ( 0.000000000000000000, 0.000000000000000000, 1.000000000000000000 ) ) ;
#4 =( NAMED_UNIT ( * ) PLANE_ANGLE_UNIT ( ) SI_UNIT ( $, .RADIAN. ) );
#5 = LOCAL_TIME ( 12, 7, 19.00000000000000000, #109 ) ;
#6 = VERTEX_POINT ( 'NONE', #190 ) ;
#7 = VECTOR ( 'NONE', #139, 1000.000000000000000 ) ;
#8 = CALENDAR_DATE ( 2022, 7, 7 ) ;
#9 = VERTEX_POINT ( 'NONE', #166 ) ;
#10 = DESIGN_CONTEXT ( 'detailed design', #34, 'design' ) ;
#11 = AXIS2_PLACEMENT_3D ( 'NONE', #2, #3, #192 ) ;
#12 = APPROVAL_ROLE ( '' ) ;
#13 = APPROVAL_PERSON_ORGANIZATION ( #275, #246, #12 ) ;
#14 = EDGE_LOOP ( 'NONE', ( #15, #201 ) ) ;
#15 = ORIENTED_EDGE ( 'NONE', *, *, #147, .T. ) ;
#16 = DIRECTION ( 'NONE',  ( 1.000000000000000000, 0.000000000000000000, 0.000000000000000000 ) ) ;
#17 = COORDINATED_UNIVERSAL_TIME_OFFSET ( 1, 0, .AHEAD. ) ;
#18 = ORIENTED_EDGE ( 'NONE', *, *, #196, .F. ) ;
#19 = CIRCLE ( 'NONE', #276, 6.000000000000000888 ) ;
#20 = FACE_OUTER_BOUND ( 'NONE', #185, .T. ) ;
#21 = CARTESIAN_POINT ( 'NONE',  ( 3.500000000000000000, 4.286263797015736595E-16, 205.0000000000000284 ) ) ;
#22 = DIRECTION ( 'NONE',  ( 0.000000000000000000, 0.000000000000000000, 1.000000000000000000 ) ) ;
#23 = MECHANICAL_CONTEXT ( 'NONE', #60, 'mechanical' ) ;
#24 = DIRECTION ( 'NONE',  ( 0.000000000000000000, 0.000000000000000000, -1.000000000000000000 ) ) ;
#25 = PERSON_AND_ORGANIZATION_ROLE ( 'design_owner' ) ;
#26 = DIRECTION ( 'NONE',  ( 1.000000000000000000, 0.000000000000000000, 0.000000000000000000 ) ) ;
#27 = AXIS2_PLACEMENT_3D ( 'NONE', #262, #175, #96 ) ;
#28 =( NAMED_UNIT ( * ) SI_UNIT ( $, .STERADIAN. ) SOLID_ANGLE_UNIT ( ) );
#29 = ORIENTED_EDGE ( 'NONE', *, *, #191, .F. ) ;
#30 = AXIS2_PLACEMENT_3D ( 'NONE', #223, #172, #26 ) ;
#31 = EDGE_LOOP ( 'NONE', ( #32, #280 ) ) ;
#32 = ORIENTED_EDGE ( 'NONE', *, *, #196, .T. ) ;
#33 = ORIENTED_EDGE ( 'NONE', *, *, #74, .F. ) ;
#34 = APPLICATION_CONTEXT ( 'configuration controlled 3d designs of mechanical parts and assemblies' ) ;
#35 = VERTEX_POINT ( 'NONE', #242 ) ;
#36 = DIRECTION ( 'NONE',  ( 0.000000000000000000, 0.000000000000000000, 1.000000000000000000 ) ) ;
#37 = EDGE_CURVE ( 'NONE', #6, #132, #298, .T. ) ;
#38 = APPROVAL_DATE_TIME ( #208, #217 ) ;
#39 = DIRECTION ( 'NONE',  ( 1.000000000000000000, 0.000000000000000000, 0.000000000000000000 ) ) ;
#40 = AXIS2_PLACEMENT_3D ( 'NONE', #120, #222, #198 ) ;
#41 = CARTESIAN_POINT ( 'NONE',  ( -3.700000000000000178, 4.531193156845206201E-16, 5.000000000000005329 ) ) ;
#42 = AXIS2_PLACEMENT_3D ( 'NONE', #134, #159, #240 ) ;
#43 = CARTESIAN_POINT ( 'NONE',  ( 0.000000000000000000, 0.000000000000000000, 5.000000000000000000 ) ) ;
#44 = CARTESIAN_POINT ( 'NONE',  ( 0.000000000000000000, 0.000000000000000000, 5.200000000000009948 ) ) ;
#45 = DIRECTION ( 'NONE',  ( 0.000000000000000000, 0.000000000000000000, 1.000000000000000000 ) ) ;
#46 = PERSON_AND_ORGANIZATION ( #153, #58 ) ;
#47 = CC_DESIGN_PERSON_AND_ORGANIZATION_ASSIGNMENT ( #277, #124, ( #210 ) ) ;
#48 = CIRCLE ( 'NONE', #129, 0.1999999999999996503 ) ;
#49 = DATE_AND_TIME ( #252, #267 ) ;
#50 = EDGE_CURVE ( 'NONE', #9, #35, #84, .T. ) ;
#51 = ORIENTED_EDGE ( 'NONE', *, *, #74, .T. ) ;
#52 = PRODUCT_RELATED_PRODUCT_CATEGORY ( 'detail', '', ( #193 ) ) ;
#53 = ORIENTED_EDGE ( 'NONE', *, *, #291, .F. ) ;
#54 = LOCAL_TIME ( 12, 7, 19.00000000000000000, #160 ) ;
#55 = ORIENTED_EDGE ( 'NONE', *, *, #147, .F. ) ;
#56 = SECURITY_CLASSIFICATION_LEVEL ( 'unclassified' ) ;
#57 = ORIENTED_EDGE ( 'NONE', *, *, #191, .T. ) ;
#58 = ORGANIZATION ( 'NEURÈENÝ', 'NEURÈENÝ', '' ) ;
#59 = FACE_OUTER_BOUND ( 'NONE', #151, .T. ) ;
#60 = APPLICATION_CONTEXT ( 'configuration controlled 3d designs of mechanical parts and assemblies' ) ;
#61 = DIRECTION ( 'NONE',  ( 0.000000000000000000, 0.000000000000000000, 1.000000000000000000 ) ) ;
#62 = DIRECTION ( 'NONE',  ( 0.000000000000000000, 0.000000000000000000, 1.000000000000000000 ) ) ;
#63 = DIRECTION ( 'NONE',  ( -0.000000000000000000, -0.000000000000000000, -1.000000000000000000 ) ) ;
#64 = CC_DESIGN_PERSON_AND_ORGANIZATION_ASSIGNMENT ( #46, #25, ( #193 ) ) ;
#65 = VECTOR ( 'NONE', #82, 1000.000000000000000 ) ;
#66 = DIRECTION ( 'NONE',  ( -0.000000000000000000, -0.000000000000000000, -1.000000000000000000 ) ) ;
#67 = FACE_OUTER_BOUND ( 'NONE', #72, .T. ) ;
#68 = PERSON_AND_ORGANIZATION ( #153, #58 ) ;
#69 = CARTESIAN_POINT ( 'NONE',  ( 6.000000000000000888, 7.347880794884120722E-16, 5.000000000000000000 ) ) ;
#70 = AXIS2_PLACEMENT_3D ( 'NONE', #143, #289, #171 ) ;
#71 = DIRECTION ( 'NONE',  ( -1.000000000000000000, 1.224646799147350742E-16, 0.000000000000000000 ) ) ;
#72 = EDGE_LOOP ( 'NONE', ( #150, #127 ) ) ;
#73 = VERTEX_POINT ( 'NONE', #259 ) ;
#74 = EDGE_CURVE ( 'NONE', #253, #274, #211, .T. ) ;
#75 = AXIS2_PLACEMENT_3D ( 'NONE', #266, #22, #121 ) ;
#76 = PERSON_AND_ORGANIZATION ( #153, #58 ) ;
#77 = ORIENTED_EDGE ( 'NONE', *, *, #303, .F. ) ;
#78 = AXIS2_PLACEMENT_3D ( 'NONE', #216, #66, #140 ) ;
#79 = ORIENTED_EDGE ( 'NONE', *, *, #50, .F. ) ;
#80 = DIRECTION ( 'NONE',  ( 0.000000000000000000, 0.000000000000000000, 1.000000000000000000 ) ) ;
#81 = AXIS2_PLACEMENT_3D ( 'NONE', #278, #110, #112 ) ;
#82 = DIRECTION ( 'NONE',  ( -0.000000000000000000, -0.000000000000000000, -1.000000000000000000 ) ) ;
#83 = EDGE_LOOP ( 'NONE', ( #230, #206, #248, #130 ) ) ;
#84 = LINE ( 'NONE', #305, #7 ) ;
#85 = ADVANCED_FACE ( 'NONE', ( #59 ), #270, .F. ) ;
#86 = AXIS2_PLACEMENT_3D ( 'NONE', #283, #106, #87 ) ;
#87 = DIRECTION ( 'NONE',  ( -1.000000000000000000, 0.000000000000000000, 0.000000000000000000 ) ) ;
#88 = FACE_OUTER_BOUND ( 'NONE', #31, .T. ) ;
#89 = EDGE_CURVE ( 'NONE', #132, #73, #214, .T. ) ;
#90 = CARTESIAN_POINT ( 'NONE',  ( -3.500000000000000000, 0.000000000000000000, 205.0000000000000284 ) ) ;
#91 = CIRCLE ( 'NONE', #146, 3.500000000000000000 ) ;
#92 = APPLICATION_PROTOCOL_DEFINITION ( 'international standard', 'config_control_design', 1994, #60 ) ;
#93 = CC_DESIGN_APPROVAL ( #246, ( #221 ) ) ;
#94 = PLANE ( 'NONE',  #189 ) ;
#95 = PRODUCT_DEFINITION_SHAPE ( 'NONE', 'NONE',  #126 ) ;
#96 = DIRECTION ( 'NONE',  ( 1.000000000000000000, 0.000000000000000000, -0.000000000000000000 ) ) ;
#97 = CC_DESIGN_DATE_AND_TIME_ASSIGNMENT ( #281, #202, ( #126 ) ) ;
#98 = ORIENTED_EDGE ( 'NONE', *, *, #123, .T. ) ;
#99 = EDGE_CURVE ( 'NONE', #35, #274, #287, .T. ) ;
#100 = CALENDAR_DATE ( 2022, 7, 7 ) ;
#101 = MANIFOLD_SOLID_BREP ( 'Zaoblit1', #229 ) ;
#102 = VERTEX_POINT ( 'NONE', #41 ) ;
#103 = CC_DESIGN_APPROVAL ( #217, ( #126 ) ) ;
#104 = APPROVAL_DATE_TIME ( #49, #251 ) ;
#105 = ORIENTED_EDGE ( 'NONE', *, *, #209, .F. ) ;
#106 = DIRECTION ( 'NONE',  ( -0.000000000000000000, -0.000000000000000000, -1.000000000000000000 ) ) ;
#107 = ADVANCED_FACE ( 'NONE', ( #161 ), #304, .T. ) ;
#108 = AXIS2_PLACEMENT_3D ( 'NONE', #258, #62, #236 ) ;
#109 = COORDINATED_UNIVERSAL_TIME_OFFSET ( 1, 0, .AHEAD. ) ;
#110 = DIRECTION ( 'NONE',  ( -0.000000000000000000, -0.000000000000000000, -1.000000000000000000 ) ) ;
#111 = LINE ( 'NONE', #113, #288 ) ;
#112 = DIRECTION ( 'NONE',  ( -1.000000000000000000, 0.000000000000000000, 0.000000000000000000 ) ) ;
#113 = CARTESIAN_POINT ( 'NONE',  ( -3.500000000000000000, 0.000000000000000000, 205.0000000000000284 ) ) ;
#114 = DIRECTION ( 'NONE',  ( 1.000000000000000000, 0.000000000000000000, 0.000000000000000000 ) ) ;
#115 = FACE_OUTER_BOUND ( 'NONE', #199, .T. ) ;
#116 = APPLICATION_PROTOCOL_DEFINITION ( 'international standard', 'config_control_design', 1994, #34 ) ;
#117 = CIRCLE ( 'NONE', #295, 0.2000000000000000944 ) ;
#118 = CARTESIAN_POINT ( 'NONE',  ( 0.000000000000000000, 0.000000000000000000, 0.000000000000000000 ) ) ;
#119 = APPROVAL_PERSON_ORGANIZATION ( #68, #217, #265 ) ;
#120 = CARTESIAN_POINT ( 'NONE',  ( 0.000000000000000000, 0.000000000000000000, 5.000000000000000000 ) ) ;
#121 = DIRECTION ( 'NONE',  ( 1.000000000000000000, 0.000000000000000000, 0.000000000000000000 ) ) ;
#122 = AXIS2_PLACEMENT_3D ( 'NONE', #301, #186, #282 ) ;
#123 = EDGE_CURVE ( 'NONE', #73, #132, #133, .T. ) ;
#124 = PERSON_AND_ORGANIZATION_ROLE ( 'classification_officer' ) ;
#125 = LOCAL_TIME ( 12, 7, 19.00000000000000000, #17 ) ;
#126 = PRODUCT_DEFINITION ( 'NEZNÁMÝ', '', #221, #10 ) ;
#127 = ORIENTED_EDGE ( 'NONE', *, *, #1, .T. ) ;
#128 = APPROVAL_ROLE ( '' ) ;
#129 = AXIS2_PLACEMENT_3D ( 'NONE', #243, #170, #24 ) ;
#130 = ORIENTED_EDGE ( 'NONE', *, *, #284, .F. ) ;
#131 = PERSON_AND_ORGANIZATION ( #153, #58 ) ;
#132 = VERTEX_POINT ( 'NONE', #165 ) ;
#133 = CIRCLE ( 'NONE', #42, 3.500000000000000000 ) ;
#134 = CARTESIAN_POINT ( 'NONE',  ( 0.000000000000000000, 0.000000000000000000, 5.200000000000009948 ) ) ;
#135 = DATE_AND_TIME ( #269, #54 ) ;
#136 = ADVANCED_BREP_SHAPE_REPRESENTATION ( '7138', ( #101, #263 ), #257 ) ;
#137 = PLANE ( 'NONE',  #108 ) ;
#138 = AXIS2_PLACEMENT_3D ( 'NONE', #118, #220, #167 ) ;
#139 = DIRECTION ( 'NONE',  ( -0.000000000000000000, -0.000000000000000000, -1.000000000000000000 ) ) ;
#140 = DIRECTION ( 'NONE',  ( -1.000000000000000000, 0.000000000000000000, 0.000000000000000000 ) ) ;
#141 = CARTESIAN_POINT ( 'NONE',  ( 0.000000000000000000, 0.000000000000000000, 5.000000000000000000 ) ) ;
#142 = DIRECTION ( 'NONE',  ( 1.000000000000000000, 0.000000000000000000, 0.000000000000000000 ) ) ;
#143 = CARTESIAN_POINT ( 'NONE',  ( 0.000000000000000000, 0.000000000000000000, 5.200000000000009948 ) ) ;
#144 = PLANE ( 'NONE',  #27 ) ;
#145 = COORDINATED_UNIVERSAL_TIME_OFFSET ( 1, 0, .AHEAD. ) ;
#146 = AXIS2_PLACEMENT_3D ( 'NONE', #163, #286, #215 ) ;
#147 = EDGE_CURVE ( 'NONE', #149, #102, #307, .T. ) ;
#148 = FACE_BOUND ( 'NONE', #14, .T. ) ;
#149 = VERTEX_POINT ( 'NONE', #306 ) ;
#150 = ORIENTED_EDGE ( 'NONE', *, *, #291, .T. ) ;
#151 = EDGE_LOOP ( 'NONE', ( #156, #250, #55, #272 ) ) ;
#152 = DATE_AND_TIME ( #8, #5 ) ;
#153 = PERSON ( 'NEURÈENÝ', 'NEURÈENÝ', 'NEURÈENÝ', ('NEURÈENÝ'), ('NEURÈENÝ'), ('NEURÈENÝ') ) ;
#154 = EDGE_LOOP ( 'NONE', ( #292, #51, #176, #79 ) ) ;
#155 = CC_DESIGN_PERSON_AND_ORGANIZATION_ASSIGNMENT ( #181, #205, ( #126 ) ) ;
#156 = ORIENTED_EDGE ( 'NONE', *, *, #123, .F. ) ;
#157 = PERSON_AND_ORGANIZATION_ROLE ( 'design_supplier' ) ;
#158 = CC_DESIGN_PERSON_AND_ORGANIZATION_ASSIGNMENT ( #76, #157, ( #221 ) ) ;
#159 = DIRECTION ( 'NONE',  ( 0.000000000000000000, 0.000000000000000000, 1.000000000000000000 ) ) ;
#160 = COORDINATED_UNIVERSAL_TIME_OFFSET ( 1, 0, .AHEAD. ) ;
#161 = FACE_OUTER_BOUND ( 'NONE', #154, .T. ) ;
#162 = ADVANCED_FACE ( 'NONE', ( #187 ), #256, .T. ) ;
#163 = CARTESIAN_POINT ( 'NONE',  ( 0.000000000000000000, 0.000000000000000000, 205.0000000000000284 ) ) ;
#164 = CIRCLE ( 'NONE', #11, 3.500000000000000000 ) ;
#165 = CARTESIAN_POINT ( 'NONE',  ( 3.500000000000000000, 4.286263797015736595E-16, 5.200000000000009948 ) ) ;
#166 = CARTESIAN_POINT ( 'NONE',  ( -6.000000000000000888, 0.000000000000000000, 5.000000000000000000 ) ) ;
#167 = DIRECTION ( 'NONE',  ( 1.000000000000000000, 0.000000000000000000, 0.000000000000000000 ) ) ;
#168 = CIRCLE ( 'NONE', #138, 6.000000000000000888 ) ;
#169 = DIRECTION ( 'NONE',  ( 0.000000000000000000, 0.000000000000000000, 1.000000000000000000 ) ) ;
#170 = DIRECTION ( 'NONE',  ( 0.000000000000000000, -1.000000000000000000, 0.000000000000000000 ) ) ;
#171 = DIRECTION ( 'NONE',  ( 1.000000000000000000, 0.000000000000000000, 0.000000000000000000 ) ) ;
#172 = DIRECTION ( 'NONE',  ( -0.000000000000000000, -0.000000000000000000, -1.000000000000000000 ) ) ;
#173 = CARTESIAN_POINT ( 'NONE',  ( 0.000000000000000000, 0.000000000000000000, 5.000000000000000000 ) ) ;
#174 = TOROIDAL_SURFACE ( 'NONE', #70, 3.700000000000000178, 0.2000000000000000111 ) ;
#175 = DIRECTION ( 'NONE',  ( 0.000000000000000000, 0.000000000000000000, 1.000000000000000000 ) ) ;
#176 = ORIENTED_EDGE ( 'NONE', *, *, #303, .T. ) ;
#177 = EDGE_LOOP ( 'NONE', ( #105, #227, #293, #29 ) ) ;
#178 = ORIENTED_EDGE ( 'NONE', *, *, #50, .T. ) ;
#179 = UNCERTAINTY_MEASURE_WITH_UNIT (LENGTH_MEASURE( 1.000000000000000082E-05 ), #241, 'distance_accuracy_value', 'NONE');
#180 = APPROVAL_DATE_TIME ( #135, #246 ) ;
#181 = PERSON_AND_ORGANIZATION ( #153, #58 ) ;
#182 = ADVANCED_FACE ( 'NONE', ( #20 ), #137, .F. ) ;
#183 = ORIENTED_EDGE ( 'NONE', *, *, #37, .F. ) ;
#184 = CIRCLE ( 'NONE', #75, 6.000000000000000888 ) ;
#185 = EDGE_LOOP ( 'NONE', ( #279, #77 ) ) ;
#186 = DIRECTION ( 'NONE',  ( 0.000000000000000000, 0.000000000000000000, 1.000000000000000000 ) ) ;
#187 = FACE_OUTER_BOUND ( 'NONE', #177, .T. ) ;
#188 = CARTESIAN_POINT ( 'NONE',  ( 0.000000000000000000, 0.000000000000000000, 0.000000000000000000 ) ) ;
#189 = AXIS2_PLACEMENT_3D ( 'NONE', #173, #45, #195 ) ;
#190 = CARTESIAN_POINT ( 'NONE',  ( 3.500000000000000000, 4.286263797015736595E-16, 205.0000000000000284 ) ) ;
#191 = EDGE_CURVE ( 'NONE', #225, #73, #111, .T. ) ;
#192 = DIRECTION ( 'NONE',  ( 1.000000000000000000, 0.000000000000000000, 0.000000000000000000 ) ) ;
#193 = PRODUCT ( '7138', '7138', '', ( #23 ) ) ;
#194 = APPROVAL_STATUS ( 'not_yet_approved' ) ;
#195 = DIRECTION ( 'NONE',  ( 1.000000000000000000, 0.000000000000000000, -0.000000000000000000 ) ) ;
#196 = EDGE_CURVE ( 'NONE', #225, #6, #91, .T. ) ;
#197 = AXIS2_PLACEMENT_3D ( 'NONE', #188, #61, #39 ) ;
#198 = DIRECTION ( 'NONE',  ( -1.000000000000000000, 0.000000000000000000, 0.000000000000000000 ) ) ;
#199 = EDGE_LOOP ( 'NONE', ( #33, #53, #178, #271 ) ) ;
#200 = CC_DESIGN_PERSON_AND_ORGANIZATION_ASSIGNMENT ( #131, #231, ( #221 ) ) ;
#201 = ORIENTED_EDGE ( 'NONE', *, *, #284, .T. ) ;
#202 = DATE_TIME_ROLE ( 'creation_date' ) ;
#203 = LOCAL_TIME ( 12, 7, 19.00000000000000000, #145 ) ;
#204 = EDGE_CURVE ( 'NONE', #73, #102, #117, .T. ) ;
#205 = PERSON_AND_ORGANIZATION_ROLE ( 'creator' ) ;
#206 = ORIENTED_EDGE ( 'NONE', *, *, #89, .F. ) ;
#207 = DIRECTION ( 'NONE',  ( 1.224646799147353207E-16, 1.000000000000000000, -0.000000000000000000 ) ) ;
#208 = DATE_AND_TIME ( #245, #203 ) ;
#209 = EDGE_CURVE ( 'NONE', #6, #225, #164, .T. ) ;
#210 = SECURITY_CLASSIFICATION ( '', '', #56 ) ;
#211 = LINE ( 'NONE', #285, #238 ) ;
#212 = CC_DESIGN_DATE_AND_TIME_ASSIGNMENT ( #152, #294, ( #210 ) ) ;
#213 = DIRECTION ( 'NONE',  ( -0.000000000000000000, -0.000000000000000000, -1.000000000000000000 ) ) ;
#214 = CIRCLE ( 'NONE', #122, 3.500000000000000000 ) ;
#215 = DIRECTION ( 'NONE',  ( 1.000000000000000000, 0.000000000000000000, 0.000000000000000000 ) ) ;
#216 = CARTESIAN_POINT ( 'NONE',  ( 0.000000000000000000, 0.000000000000000000, 5.000000000000000000 ) ) ;
#217 = APPROVAL ( #194, 'NEURÈENÝ' ) ;
#218 = AXIS2_PLACEMENT_3D ( 'NONE', #43, #63, #232 ) ;
#219 = CARTESIAN_POINT ( 'NONE',  ( 6.000000000000000888, 7.347880794884120722E-16, 0.000000000000000000 ) ) ;
#220 = DIRECTION ( 'NONE',  ( 0.000000000000000000, 0.000000000000000000, 1.000000000000000000 ) ) ;
#221 = PRODUCT_DEFINITION_FORMATION_WITH_SPECIFIED_SOURCE ( 'LIBOVOLNÝ', '', #193, .NOT_KNOWN. ) ;
#222 = DIRECTION ( 'NONE',  ( -0.000000000000000000, -0.000000000000000000, -1.000000000000000000 ) ) ;
#223 = CARTESIAN_POINT ( 'NONE',  ( 0.000000000000000000, 0.000000000000000000, 5.000000000000000000 ) ) ;
#224 = ADVANCED_FACE ( 'NONE', ( #88 ), #144, .T. ) ;
#225 = VERTEX_POINT ( 'NONE', #90 ) ;
#226 = APPROVAL_STATUS ( 'not_yet_approved' ) ;
#227 = ORIENTED_EDGE ( 'NONE', *, *, #37, .T. ) ;
#228 = APPROVAL_STATUS ( 'not_yet_approved' ) ;
#229 = CLOSED_SHELL ( 'NONE', ( #85, #162, #107, #254, #234, #182, #268, #224, #249 ) ) ;
#230 = ORIENTED_EDGE ( 'NONE', *, *, #204, .F. ) ;
#231 = PERSON_AND_ORGANIZATION_ROLE ( 'creator' ) ;
#232 = DIRECTION ( 'NONE',  ( 1.000000000000000000, 0.000000000000000000, 0.000000000000000000 ) ) ;
#233 = COORDINATED_UNIVERSAL_TIME_OFFSET ( 1, 0, .AHEAD. ) ;
#234 = ADVANCED_FACE ( 'NONE', ( #148, #67 ), #94, .T. ) ;
#235 = CIRCLE ( 'NONE', #30, 3.700000000000000178 ) ;
#236 = DIRECTION ( 'NONE',  ( 1.000000000000000000, 0.000000000000000000, -0.000000000000000000 ) ) ;
#237 = DIRECTION ( 'NONE',  ( -0.000000000000000000, -0.000000000000000000, -1.000000000000000000 ) ) ;
#238 = VECTOR ( 'NONE', #237, 1000.000000000000000 ) ;
#239 = EDGE_CURVE ( 'NONE', #132, #149, #48, .T. ) ;
#240 = DIRECTION ( 'NONE',  ( 1.000000000000000000, 0.000000000000000000, 0.000000000000000000 ) ) ;
#241 =( LENGTH_UNIT ( ) NAMED_UNIT ( * ) SI_UNIT ( .MILLI., .METRE. ) );
#242 = CARTESIAN_POINT ( 'NONE',  ( -6.000000000000000888, 0.000000000000000000, 0.000000000000000000 ) ) ;
#243 = CARTESIAN_POINT ( 'NONE',  ( 3.700000000000000178, 0.000000000000000000, 5.200000000000009948 ) ) ;
#244 = CYLINDRICAL_SURFACE ( 'NONE', #40, 6.000000000000000888 ) ;
#245 = CALENDAR_DATE ( 2022, 7, 7 ) ;
#246 = APPROVAL ( #226, 'NEURÈENÝ' ) ;
#247 = CYLINDRICAL_SURFACE ( 'NONE', #81, 3.500000000000000000 ) ;
#248 = ORIENTED_EDGE ( 'NONE', *, *, #239, .T. ) ;
#249 = ADVANCED_FACE ( 'NONE', ( #264 ), #174, .F. ) ;
#250 = ORIENTED_EDGE ( 'NONE', *, *, #204, .T. ) ;
#251 = APPROVAL ( #228, 'NEURÈENÝ' ) ;
#252 = CALENDAR_DATE ( 2022, 7, 7 ) ;
#253 = VERTEX_POINT ( 'NONE', #69 ) ;
#254 = ADVANCED_FACE ( 'NONE', ( #115 ), #244, .T. ) ;
#255 = SHAPE_DEFINITION_REPRESENTATION ( #95, #136 ) ;
#256 = CYLINDRICAL_SURFACE ( 'NONE', #86, 3.500000000000000000 ) ;
#257 =( GEOMETRIC_REPRESENTATION_CONTEXT ( 3 ) GLOBAL_UNCERTAINTY_ASSIGNED_CONTEXT ( ( #179 ) ) GLOBAL_UNIT_ASSIGNED_CONTEXT ( ( #241, #4, #28 ) ) REPRESENTATION_CONTEXT ( 'NONE', 'WORKASPACE' ) );
#258 = CARTESIAN_POINT ( 'NONE',  ( 0.000000000000000000, 0.000000000000000000, 0.000000000000000000 ) ) ;
#259 = CARTESIAN_POINT ( 'NONE',  ( -3.500000000000000000, 0.000000000000000000, 5.200000000000009948 ) ) ;
#260 = CARTESIAN_POINT ( 'NONE',  ( -3.700000000000000178, 4.531193156845206201E-16, 5.200000000000009948 ) ) ;
#261 = CARTESIAN_POINT ( 'NONE',  ( 0.000000000000000000, 0.000000000000000000, 0.000000000000000000 ) ) ;
#262 = CARTESIAN_POINT ( 'NONE',  ( 0.000000000000000000, 0.000000000000000000, 205.0000000000000284 ) ) ;
#263 = AXIS2_PLACEMENT_3D ( 'NONE', #261, #169, #142 ) ;
#264 = FACE_OUTER_BOUND ( 'NONE', #83, .T. ) ;
#265 = APPROVAL_ROLE ( '' ) ;
#266 = CARTESIAN_POINT ( 'NONE',  ( 0.000000000000000000, 0.000000000000000000, 5.000000000000000000 ) ) ;
#267 = LOCAL_TIME ( 12, 7, 19.00000000000000000, #233 ) ;
#268 = ADVANCED_FACE ( 'NONE', ( #290 ), #247, .T. ) ;
#269 = CALENDAR_DATE ( 2022, 7, 7 ) ;
#270 = TOROIDAL_SURFACE ( 'NONE', #302, 3.700000000000000178, 0.2000000000000000111 ) ;
#271 = ORIENTED_EDGE ( 'NONE', *, *, #99, .T. ) ;
#272 = ORIENTED_EDGE ( 'NONE', *, *, #239, .F. ) ;
#273 = CC_DESIGN_APPROVAL ( #251, ( #210 ) ) ;
#274 = VERTEX_POINT ( 'NONE', #219 ) ;
#275 = PERSON_AND_ORGANIZATION ( #153, #58 ) ;
#276 = AXIS2_PLACEMENT_3D ( 'NONE', #141, #36, #16 ) ;
#277 = PERSON_AND_ORGANIZATION ( #153, #58 ) ;
#278 = CARTESIAN_POINT ( 'NONE',  ( 0.000000000000000000, 0.000000000000000000, 205.0000000000000284 ) ) ;
#279 = ORIENTED_EDGE ( 'NONE', *, *, #99, .F. ) ;
#280 = ORIENTED_EDGE ( 'NONE', *, *, #209, .T. ) ;
#281 = DATE_AND_TIME ( #100, #125 ) ;
#282 = DIRECTION ( 'NONE',  ( 1.000000000000000000, 0.000000000000000000, 0.000000000000000000 ) ) ;
#283 = CARTESIAN_POINT ( 'NONE',  ( 0.000000000000000000, 0.000000000000000000, 205.0000000000000284 ) ) ;
#284 = EDGE_CURVE ( 'NONE', #102, #149, #235, .T. ) ;
#285 = CARTESIAN_POINT ( 'NONE',  ( 6.000000000000000888, 7.347880794884120722E-16, 5.000000000000000000 ) ) ;
#286 = DIRECTION ( 'NONE',  ( 0.000000000000000000, 0.000000000000000000, 1.000000000000000000 ) ) ;
#287 = CIRCLE ( 'NONE', #197, 6.000000000000000888 ) ;
#288 = VECTOR ( 'NONE', #213, 1000.000000000000000 ) ;
#289 = DIRECTION ( 'NONE',  ( 0.000000000000000000, 0.000000000000000000, 1.000000000000000000 ) ) ;
#290 = FACE_OUTER_BOUND ( 'NONE', #297, .T. ) ;
#291 = EDGE_CURVE ( 'NONE', #9, #253, #184, .T. ) ;
#292 = ORIENTED_EDGE ( 'NONE', *, *, #1, .F. ) ;
#293 = ORIENTED_EDGE ( 'NONE', *, *, #89, .T. ) ;
#294 = DATE_TIME_ROLE ( 'classification_date' ) ;
#295 = AXIS2_PLACEMENT_3D ( 'NONE', #260, #207, #71 ) ;
#296 = APPROVAL_PERSON_ORGANIZATION ( #299, #251, #128 ) ;
#297 = EDGE_LOOP ( 'NONE', ( #183, #18, #57, #98 ) ) ;
#298 = LINE ( 'NONE', #21, #65 ) ;
#299 = PERSON_AND_ORGANIZATION ( #153, #58 ) ;
#300 = CC_DESIGN_SECURITY_CLASSIFICATION ( #210, ( #221 ) ) ;
#301 = CARTESIAN_POINT ( 'NONE',  ( 0.000000000000000000, 0.000000000000000000, 5.200000000000009948 ) ) ;
#302 = AXIS2_PLACEMENT_3D ( 'NONE', #44, #80, #114 ) ;
#303 = EDGE_CURVE ( 'NONE', #274, #35, #168, .T. ) ;
#304 = CYLINDRICAL_SURFACE ( 'NONE', #78, 6.000000000000000888 ) ;
#305 = CARTESIAN_POINT ( 'NONE',  ( -6.000000000000000888, 0.000000000000000000, 5.000000000000000000 ) ) ;
#306 = CARTESIAN_POINT ( 'NONE',  ( 3.700000000000000178, 0.000000000000000000, 5.000000000000005329 ) ) ;
#307 = CIRCLE ( 'NONE', #218, 3.700000000000000178 ) ;
ENDSEC;
END-ISO-10303-21;
