ISO-10303-21;
HEADER;
FILE_DESCRIPTION (( 'STEP AP203' ),
    '1' );
FILE_NAME ('dd34.STEP',
    '2022-07-07T09:52:29',
    ( '' ),
    ( '' ),
    'SwSTEP 2.0',
    'SolidWorks 2019',
    '' );
FILE_SCHEMA (( 'CONFIG_CONTROL_DESIGN' ));
ENDSEC;

DATA;
#1 = EDGE_CURVE ( 'NONE', #46, #71, #89, .T. ) ;
#2 = COORDINATED_UNIVERSAL_TIME_OFFSET ( 1, 0, .AHEAD. ) ;
#3 = PERSON_AND_ORGANIZATION ( #200, #284 ) ;
#4 = AXIS2_PLACEMENT_3D ( 'NONE', #140, #63, #305 ) ;
#5 = DATE_AND_TIME ( #24, #300 ) ;
#6 = ORIENTED_EDGE ( 'NONE', *, *, #146, .T. ) ;
#7 = DIRECTION ( 'NONE',  ( 0.000000000000000000, 0.000000000000000000, 1.000000000000000000 ) ) ;
#8 = CIRCLE ( 'NONE', #43, 5.100000000000001421 ) ;
#9 = ORIENTED_EDGE ( 'NONE', *, *, #301, .F. ) ;
#10 = APPLICATION_CONTEXT ( 'configuration controlled 3d designs of mechanical parts and assemblies' ) ;
#11 = DIRECTION ( 'NONE',  ( 0.000000000000000000, 0.000000000000000000, 1.000000000000000000 ) ) ;
#12 = CARTESIAN_POINT ( 'NONE',  ( 0.000000000000000000, 0.000000000000000000, 5.199999999999982414 ) ) ;
#13 = VERTEX_POINT ( 'NONE', #152 ) ;
#14 = LOCAL_TIME ( 11, 52, 29.00000000000000000, #101 ) ;
#15 = ORIENTED_EDGE ( 'NONE', *, *, #54, .T. ) ;
#16 = CARTESIAN_POINT ( 'NONE',  ( -5.300000000000000711, 6.490628035480972910E-16, 5.199999999999982414 ) ) ;
#17 = CARTESIAN_POINT ( 'NONE',  ( 0.000000000000000000, 0.000000000000000000, 320.0000000000000000 ) ) ;
#18 = DIRECTION ( 'NONE',  ( 1.000000000000000000, 0.000000000000000000, 0.000000000000000000 ) ) ;
#19 = CARTESIAN_POINT ( 'NONE',  ( -8.000000000000000000, 0.000000000000000000, 5.000000000000000000 ) ) ;
#20 = CARTESIAN_POINT ( 'NONE',  ( 8.000000000000000000, 9.797174393178825657E-16, 5.000000000000000000 ) ) ;
#21 = APPLICATION_CONTEXT ( 'configuration controlled 3d designs of mechanical parts and assemblies' ) ;
#22 = COORDINATED_UNIVERSAL_TIME_OFFSET ( 1, 0, .AHEAD. ) ;
#23 = EDGE_LOOP ( 'NONE', ( #145, #34 ) ) ;
#24 = CALENDAR_DATE ( 2022, 7, 7 ) ;
#25 = CIRCLE ( 'NONE', #165, 0.1999999999999996503 ) ;
#26 = PRODUCT_RELATED_PRODUCT_CATEGORY ( 'detail', '', ( #50 ) ) ;
#27 = CARTESIAN_POINT ( 'NONE',  ( 5.100000000000001421, 6.245698675651502811E-16, 320.0000000000000000 ) ) ;
#28 = EDGE_LOOP ( 'NONE', ( #143, #98, #241, #159 ) ) ;
#29 = PLANE ( 'NONE',  #175 ) ;
#30 = AXIS2_PLACEMENT_3D ( 'NONE', #278, #279, #62 ) ;
#31 = ORIENTED_EDGE ( 'NONE', *, *, #158, .T. ) ;
#32 = EDGE_LOOP ( 'NONE', ( #172, #156, #131, #31 ) ) ;
#33 = CIRCLE ( 'NONE', #112, 8.000000000000000000 ) ;
#34 = ORIENTED_EDGE ( 'NONE', *, *, #237, .T. ) ;
#35 = CC_DESIGN_SECURITY_CLASSIFICATION ( #248, ( #115 ) ) ;
#36 = VERTEX_POINT ( 'NONE', #57 ) ;
#37 = DIRECTION ( 'NONE',  ( -1.000000000000000000, 0.000000000000000000, 0.000000000000000000 ) ) ;
#38 = ADVANCED_FACE ( 'NONE', ( #56 ), #228, .T. ) ;
#39 = FACE_OUTER_BOUND ( 'NONE', #28, .T. ) ;
#40 = CARTESIAN_POINT ( 'NONE',  ( 0.000000000000000000, 0.000000000000000000, 5.199999999999982414 ) ) ;
#41 = AXIS2_PLACEMENT_3D ( 'NONE', #239, #283, #66 ) ;
#42 = DIRECTION ( 'NONE',  ( 0.000000000000000000, 0.000000000000000000, 1.000000000000000000 ) ) ;
#43 = AXIS2_PLACEMENT_3D ( 'NONE', #256, #42, #281 ) ;
#44 = PLANE ( 'NONE',  #195 ) ;
#45 = APPLICATION_PROTOCOL_DEFINITION ( 'international standard', 'config_control_design', 1994, #21 ) ;
#46 = VERTEX_POINT ( 'NONE', #295 ) ;
#47 = COORDINATED_UNIVERSAL_TIME_OFFSET ( 1, 0, .AHEAD. ) ;
#48 = DATE_AND_TIME ( #173, #235 ) ;
#49 = DIRECTION ( 'NONE',  ( -0.000000000000000000, -0.000000000000000000, -1.000000000000000000 ) ) ;
#50 = PRODUCT ( 'dd34', 'dd34', '', ( #268 ) ) ;
#51 = CIRCLE ( 'NONE', #4, 5.100000000000001421 ) ;
#52 = CARTESIAN_POINT ( 'NONE',  ( 0.000000000000000000, 0.000000000000000000, 5.000000000000000000 ) ) ;
#53 = ORIENTED_EDGE ( 'NONE', *, *, #88, .F. ) ;
#54 = EDGE_CURVE ( 'NONE', #273, #46, #94, .T. ) ;
#55 = ORIENTED_EDGE ( 'NONE', *, *, #100, .T. ) ;
#56 = FACE_OUTER_BOUND ( 'NONE', #252, .T. ) ;
#57 = CARTESIAN_POINT ( 'NONE',  ( 8.000000000000000000, 9.797174393178825657E-16, 0.000000000000000000 ) ) ;
#58 = ORIENTED_EDGE ( 'NONE', *, *, #65, .F. ) ;
#59 = DIRECTION ( 'NONE',  ( 0.000000000000000000, 0.000000000000000000, 1.000000000000000000 ) ) ;
#60 = DIRECTION ( 'NONE',  ( 1.000000000000000000, 0.000000000000000000, 0.000000000000000000 ) ) ;
#61 = DIRECTION ( 'NONE',  ( -0.000000000000000000, -0.000000000000000000, -1.000000000000000000 ) ) ;
#62 = DIRECTION ( 'NONE',  ( 1.000000000000000000, 0.000000000000000000, 0.000000000000000000 ) ) ;
#63 = DIRECTION ( 'NONE',  ( 0.000000000000000000, 0.000000000000000000, 1.000000000000000000 ) ) ;
#64 = AXIS2_PLACEMENT_3D ( 'NONE', #219, #7, #201 ) ;
#65 = EDGE_CURVE ( 'NONE', #182, #36, #33, .T. ) ;
#66 = DIRECTION ( 'NONE',  ( 1.000000000000000000, 0.000000000000000000, 0.000000000000000000 ) ) ;
#67 = APPROVAL_ROLE ( '' ) ;
#68 = PERSON_AND_ORGANIZATION_ROLE ( 'design_supplier' ) ;
#69 = CC_DESIGN_APPROVAL ( #254, ( #123 ) ) ;
#70 =( NAMED_UNIT ( * ) PLANE_ANGLE_UNIT ( ) SI_UNIT ( $, .RADIAN. ) );
#71 = VERTEX_POINT ( 'NONE', #231 ) ;
#72 = APPROVAL_DATE_TIME ( #307, #254 ) ;
#73 = FACE_OUTER_BOUND ( 'NONE', #23, .T. ) ;
#74 = DIRECTION ( 'NONE',  ( -1.000000000000000000, 0.000000000000000000, 0.000000000000000000 ) ) ;
#75 = CYLINDRICAL_SURFACE ( 'NONE', #183, 5.100000000000001421 ) ;
#76 = ADVANCED_FACE ( 'NONE', ( #288 ), #274, .F. ) ;
#77 = CIRCLE ( 'NONE', #30, 8.000000000000000000 ) ;
#78 = APPROVAL_DATE_TIME ( #130, #135 ) ;
#79 = ORIENTED_EDGE ( 'NONE', *, *, #126, .T. ) ;
#80 = EDGE_LOOP ( 'NONE', ( #58, #223 ) ) ;
#81 = FACE_OUTER_BOUND ( 'NONE', #151, .T. ) ;
#82 = DIRECTION ( 'NONE',  ( 0.000000000000000000, 0.000000000000000000, 1.000000000000000000 ) ) ;
#83 = CARTESIAN_POINT ( 'NONE',  ( 0.000000000000000000, 0.000000000000000000, 0.000000000000000000 ) ) ;
#84 = DIRECTION ( 'NONE',  ( -0.000000000000000000, -0.000000000000000000, -1.000000000000000000 ) ) ;
#85 = ADVANCED_FACE ( 'NONE', ( #270, #73 ), #29, .T. ) ;
#86 = CYLINDRICAL_SURFACE ( 'NONE', #168, 8.000000000000000000 ) ;
#87 = PERSON_AND_ORGANIZATION ( #200, #284 ) ;
#88 = EDGE_CURVE ( 'NONE', #124, #46, #153, .T. ) ;
#89 = CIRCLE ( 'NONE', #304, 0.1999999999999996503 ) ;
#90 = PERSON_AND_ORGANIZATION ( #200, #284 ) ;
#91 = DATE_TIME_ROLE ( 'classification_date' ) ;
#92 = ORIENTED_EDGE ( 'NONE', *, *, #244, .T. ) ;
#93 = PERSON_AND_ORGANIZATION ( #200, #284 ) ;
#94 = CIRCLE ( 'NONE', #264, 5.100000000000001421 ) ;
#95 = ADVANCED_FACE ( 'NONE', ( #292 ), #75, .T. ) ;
#96 = ORIENTED_EDGE ( 'NONE', *, *, #212, .F. ) ;
#97 = CALENDAR_DATE ( 2022, 7, 7 ) ;
#98 = ORIENTED_EDGE ( 'NONE', *, *, #1, .T. ) ;
#99 = UNCERTAINTY_MEASURE_WITH_UNIT (LENGTH_MEASURE( 1.000000000000000082E-05 ), #150, 'distance_accuracy_value', 'NONE');
#100 = EDGE_CURVE ( 'NONE', #124, #13, #8, .T. ) ;
#101 = COORDINATED_UNIVERSAL_TIME_OFFSET ( 1, 0, .AHEAD. ) ;
#102 = DIRECTION ( 'NONE',  ( 0.000000000000000000, 0.000000000000000000, 1.000000000000000000 ) ) ;
#103 = DIRECTION ( 'NONE',  ( -1.000000000000000000, 1.224646799147353454E-16, 0.000000000000000000 ) ) ;
#104 = LOCAL_TIME ( 11, 52, 29.00000000000000000, #2 ) ;
#105 = DIRECTION ( 'NONE',  ( 1.000000000000000000, 0.000000000000000000, 0.000000000000000000 ) ) ;
#106 = DIRECTION ( 'NONE',  ( 0.000000000000000000, -1.000000000000000000, 0.000000000000000000 ) ) ;
#107 = ADVANCED_FACE ( 'NONE', ( #253 ), #86, .T. ) ;
#108 = DIRECTION ( 'NONE',  ( 1.000000000000000000, 0.000000000000000000, 0.000000000000000000 ) ) ;
#109 = LOCAL_TIME ( 11, 52, 29.00000000000000000, #47 ) ;
#110 = CARTESIAN_POINT ( 'NONE',  ( 0.000000000000000000, 0.000000000000000000, 0.000000000000000000 ) ) ;
#111 = CARTESIAN_POINT ( 'NONE',  ( 0.000000000000000000, 0.000000000000000000, 320.0000000000000000 ) ) ;
#112 = AXIS2_PLACEMENT_3D ( 'NONE', #275, #59, #202 ) ;
#113 = LINE ( 'NONE', #19, #267 ) ;
#114 = APPROVAL_STATUS ( 'not_yet_approved' ) ;
#115 = PRODUCT_DEFINITION_FORMATION_WITH_SPECIFIED_SOURCE ( 'LIBOVOLNÝ', '', #50, .NOT_KNOWN. ) ;
#116 = APPROVAL_DATE_TIME ( #5, #266 ) ;
#117 = CALENDAR_DATE ( 2022, 7, 7 ) ;
#118 = EDGE_LOOP ( 'NONE', ( #250, #263 ) ) ;
#119 = PERSON_AND_ORGANIZATION_ROLE ( 'creator' ) ;
#120 = ORIENTED_EDGE ( 'NONE', *, *, #212, .T. ) ;
#121 = AXIS2_PLACEMENT_3D ( 'NONE', #52, #199, #122 ) ;
#122 = DIRECTION ( 'NONE',  ( 1.000000000000000000, 0.000000000000000000, 0.000000000000000000 ) ) ;
#123 = PRODUCT_DEFINITION ( 'NEZNÁMÝ', '', #115, #290 ) ;
#124 = VERTEX_POINT ( 'NONE', #136 ) ;
#125 = VECTOR ( 'NONE', #234, 1000.000000000000000 ) ;
#126 = EDGE_CURVE ( 'NONE', #207, #36, #217, .T. ) ;
#127 = APPROVAL_PERSON_ORGANIZATION ( #171, #266, #67 ) ;
#128 = ORIENTED_EDGE ( 'NONE', *, *, #180, .T. ) ;
#129 = DIRECTION ( 'NONE',  ( 1.224646799147353207E-16, 1.000000000000000000, -0.000000000000000000 ) ) ;
#130 = DATE_AND_TIME ( #97, #14 ) ;
#131 = ORIENTED_EDGE ( 'NONE', *, *, #88, .T. ) ;
#132 = CIRCLE ( 'NONE', #41, 5.300000000000000711 ) ;
#133 = VERTEX_POINT ( 'NONE', #299 ) ;
#134 = CYLINDRICAL_SURFACE ( 'NONE', #230, 5.100000000000001421 ) ;
#135 = APPROVAL ( #155, 'NEURÈENÝ' ) ;
#136 = CARTESIAN_POINT ( 'NONE',  ( -5.100000000000001421, 0.000000000000000000, 320.0000000000000000 ) ) ;
#137 = DIRECTION ( 'NONE',  ( 0.000000000000000000, 0.000000000000000000, -1.000000000000000000 ) ) ;
#138 = CARTESIAN_POINT ( 'NONE',  ( 8.000000000000000000, 9.797174393178825657E-16, 5.000000000000000000 ) ) ;
#139 = VECTOR ( 'NONE', #206, 1000.000000000000000 ) ;
#140 = CARTESIAN_POINT ( 'NONE',  ( 0.000000000000000000, 0.000000000000000000, 320.0000000000000000 ) ) ;
#141 = APPROVAL_STATUS ( 'not_yet_approved' ) ;
#142 = AXIS2_PLACEMENT_3D ( 'NONE', #110, #302, #188 ) ;
#143 = ORIENTED_EDGE ( 'NONE', *, *, #158, .F. ) ;
#144 = SECURITY_CLASSIFICATION_LEVEL ( 'unclassified' ) ;
#145 = ORIENTED_EDGE ( 'NONE', *, *, #301, .T. ) ;
#146 = EDGE_CURVE ( 'NONE', #13, #124, #51, .T. ) ;
#147 = APPROVAL_ROLE ( '' ) ;
#148 = APPROVAL_PERSON_ORGANIZATION ( #196, #135, #181 ) ;
#149 = CC_DESIGN_PERSON_AND_ORGANIZATION_ASSIGNMENT ( #90, #68, ( #115 ) ) ;
#150 =( LENGTH_UNIT ( ) NAMED_UNIT ( * ) SI_UNIT ( .MILLI., .METRE. ) );
#151 = EDGE_LOOP ( 'NONE', ( #55, #6 ) ) ;
#152 = CARTESIAN_POINT ( 'NONE',  ( 5.100000000000001421, 6.245698675651502811E-16, 320.0000000000000000 ) ) ;
#153 = LINE ( 'NONE', #247, #139 ) ;
#154 = CC_DESIGN_APPROVAL ( #135, ( #248 ) ) ;
#155 = APPROVAL_STATUS ( 'not_yet_approved' ) ;
#156 = ORIENTED_EDGE ( 'NONE', *, *, #100, .F. ) ;
#157 = VERTEX_POINT ( 'NONE', #255 ) ;
#158 = EDGE_CURVE ( 'NONE', #46, #273, #222, .T. ) ;
#159 = ORIENTED_EDGE ( 'NONE', *, *, #244, .F. ) ;
#160 = FACE_OUTER_BOUND ( 'NONE', #32, .T. ) ;
#161 = PLANE ( 'NONE',  #189 ) ;
#162 = ADVANCED_FACE ( 'NONE', ( #39 ), #178, .F. ) ;
#163 = AXIS2_PLACEMENT_3D ( 'NONE', #174, #269, #246 ) ;
#164 = DIRECTION ( 'NONE',  ( -0.000000000000000000, -0.000000000000000000, -1.000000000000000000 ) ) ;
#165 = AXIS2_PLACEMENT_3D ( 'NONE', #257, #106, #137 ) ;
#166 = FACE_OUTER_BOUND ( 'NONE', #80, .T. ) ;
#167 = DIRECTION ( 'NONE',  ( -1.000000000000000000, 0.000000000000000000, 0.000000000000000000 ) ) ;
#168 = AXIS2_PLACEMENT_3D ( 'NONE', #232, #61, #37 ) ;
#169 = PERSON_AND_ORGANIZATION_ROLE ( 'design_owner' ) ;
#170 = AXIS2_PLACEMENT_3D ( 'NONE', #186, #215, #18 ) ;
#171 = PERSON_AND_ORGANIZATION ( #200, #284 ) ;
#172 = ORIENTED_EDGE ( 'NONE', *, *, #286, .F. ) ;
#173 = CALENDAR_DATE ( 2022, 7, 7 ) ;
#174 = CARTESIAN_POINT ( 'NONE',  ( 0.000000000000000000, 0.000000000000000000, 5.199999999999982414 ) ) ;
#175 = AXIS2_PLACEMENT_3D ( 'NONE', #225, #11, #176 ) ;
#176 = DIRECTION ( 'NONE',  ( 1.000000000000000000, 0.000000000000000000, -0.000000000000000000 ) ) ;
#177 = CARTESIAN_POINT ( 'NONE',  ( 0.000000000000000000, 0.000000000000000000, 5.000000000000000000 ) ) ;
#178 = TOROIDAL_SURFACE ( 'NONE', #170, 5.300000000000000711, 0.2000000000000000111 ) ;
#179 = ORIENTED_EDGE ( 'NONE', *, *, #54, .F. ) ;
#180 = EDGE_CURVE ( 'NONE', #36, #182, #214, .T. ) ;
#181 = APPROVAL_ROLE ( '' ) ;
#182 = VERTEX_POINT ( 'NONE', #190 ) ;
#183 = AXIS2_PLACEMENT_3D ( 'NONE', #272, #213, #276 ) ;
#184 = CC_DESIGN_DATE_AND_TIME_ASSIGNMENT ( #221, #91, ( #248 ) ) ;
#185 = DIRECTION ( 'NONE',  ( 1.000000000000000000, 0.000000000000000000, -0.000000000000000000 ) ) ;
#186 = CARTESIAN_POINT ( 'NONE',  ( 0.000000000000000000, 0.000000000000000000, 5.199999999999982414 ) ) ;
#187 = DIRECTION ( 'NONE',  ( 0.000000000000000000, 0.000000000000000000, 1.000000000000000000 ) ) ;
#188 = DIRECTION ( 'NONE',  ( 1.000000000000000000, 0.000000000000000000, 0.000000000000000000 ) ) ;
#189 = AXIS2_PLACEMENT_3D ( 'NONE', #111, #216, #185 ) ;
#190 = CARTESIAN_POINT ( 'NONE',  ( -8.000000000000000000, 0.000000000000000000, 0.000000000000000000 ) ) ;
#191 = CC_DESIGN_PERSON_AND_ORGANIZATION_ASSIGNMENT ( #240, #169, ( #50 ) ) ;
#192 = DATE_TIME_ROLE ( 'creation_date' ) ;
#193 = CC_DESIGN_PERSON_AND_ORGANIZATION_ASSIGNMENT ( #261, #285, ( #248 ) ) ;
#194 = PERSON_AND_ORGANIZATION_ROLE ( 'creator' ) ;
#195 = AXIS2_PLACEMENT_3D ( 'NONE', #83, #187, #238 ) ;
#196 = PERSON_AND_ORGANIZATION ( #200, #284 ) ;
#197 = ADVANCED_FACE ( 'NONE', ( #166 ), #44, .F. ) ;
#198 = ORIENTED_EDGE ( 'NONE', *, *, #1, .F. ) ;
#199 = DIRECTION ( 'NONE',  ( 0.000000000000000000, 0.000000000000000000, 1.000000000000000000 ) ) ;
#200 = PERSON ( 'NEURÈENÝ', 'NEURÈENÝ', 'NEURÈENÝ', ('NEURÈENÝ'), ('NEURÈENÝ'), ('NEURÈENÝ') ) ;
#201 = DIRECTION ( 'NONE',  ( 1.000000000000000000, 0.000000000000000000, 0.000000000000000000 ) ) ;
#202 = DIRECTION ( 'NONE',  ( 1.000000000000000000, 0.000000000000000000, 0.000000000000000000 ) ) ;
#203 =( GEOMETRIC_REPRESENTATION_CONTEXT ( 3 ) GLOBAL_UNCERTAINTY_ASSIGNED_CONTEXT ( ( #99 ) ) GLOBAL_UNIT_ASSIGNED_CONTEXT ( ( #150, #70, #265 ) ) REPRESENTATION_CONTEXT ( 'NONE', 'WORKASPACE' ) );
#204 = CC_DESIGN_DATE_AND_TIME_ASSIGNMENT ( #48, #192, ( #123 ) ) ;
#205 = EDGE_LOOP ( 'NONE', ( #210, #251, #15, #53 ) ) ;
#206 = DIRECTION ( 'NONE',  ( -0.000000000000000000, -0.000000000000000000, -1.000000000000000000 ) ) ;
#207 = VERTEX_POINT ( 'NONE', #20 ) ;
#208 = ADVANCED_FACE ( 'NONE', ( #160 ), #134, .T. ) ;
#209 = AXIS2_PLACEMENT_3D ( 'NONE', #211, #236, #108 ) ;
#210 = ORIENTED_EDGE ( 'NONE', *, *, #146, .F. ) ;
#211 = CARTESIAN_POINT ( 'NONE',  ( 0.000000000000000000, 0.000000000000000000, 5.000000000000000000 ) ) ;
#212 = EDGE_CURVE ( 'NONE', #133, #182, #113, .T. ) ;
#213 = DIRECTION ( 'NONE',  ( -0.000000000000000000, -0.000000000000000000, -1.000000000000000000 ) ) ;
#214 = CIRCLE ( 'NONE', #142, 8.000000000000000000 ) ;
#215 = DIRECTION ( 'NONE',  ( 0.000000000000000000, 0.000000000000000000, 1.000000000000000000 ) ) ;
#216 = DIRECTION ( 'NONE',  ( 0.000000000000000000, 0.000000000000000000, 1.000000000000000000 ) ) ;
#217 = LINE ( 'NONE', #138, #125 ) ;
#218 = CC_DESIGN_PERSON_AND_ORGANIZATION_ASSIGNMENT ( #3, #194, ( #115 ) ) ;
#219 = CARTESIAN_POINT ( 'NONE',  ( 0.000000000000000000, 0.000000000000000000, 0.000000000000000000 ) ) ;
#220 = MANIFOLD_SOLID_BREP ( 'Zaoblit1', #258 ) ;
#221 = DATE_AND_TIME ( #117, #109 ) ;
#222 = CIRCLE ( 'NONE', #277, 5.100000000000001421 ) ;
#223 = ORIENTED_EDGE ( 'NONE', *, *, #180, .F. ) ;
#224 = EDGE_CURVE ( 'NONE', #71, #157, #132, .T. ) ;
#225 = CARTESIAN_POINT ( 'NONE',  ( 0.000000000000000000, 0.000000000000000000, 5.000000000000000000 ) ) ;
#226 = CIRCLE ( 'NONE', #209, 5.300000000000000711 ) ;
#227 = DIRECTION ( 'NONE',  ( -0.000000000000000000, -0.000000000000000000, -1.000000000000000000 ) ) ;
#228 = CYLINDRICAL_SURFACE ( 'NONE', #291, 8.000000000000000000 ) ;
#229 = ORIENTED_EDGE ( 'NONE', *, *, #65, .T. ) ;
#230 = AXIS2_PLACEMENT_3D ( 'NONE', #17, #84, #167 ) ;
#231 = CARTESIAN_POINT ( 'NONE',  ( -5.300000000000000711, 6.490628035480971924E-16, 4.999999999999991118 ) ) ;
#232 = CARTESIAN_POINT ( 'NONE',  ( 0.000000000000000000, 0.000000000000000000, 5.000000000000000000 ) ) ;
#233 = CC_DESIGN_PERSON_AND_ORGANIZATION_ASSIGNMENT ( #87, #119, ( #123 ) ) ;
#234 = DIRECTION ( 'NONE',  ( -0.000000000000000000, -0.000000000000000000, -1.000000000000000000 ) ) ;
#235 = LOCAL_TIME ( 11, 52, 29.00000000000000000, #22 ) ;
#236 = DIRECTION ( 'NONE',  ( -0.000000000000000000, -0.000000000000000000, -1.000000000000000000 ) ) ;
#237 = EDGE_CURVE ( 'NONE', #207, #133, #77, .T. ) ;
#238 = DIRECTION ( 'NONE',  ( 1.000000000000000000, 0.000000000000000000, -0.000000000000000000 ) ) ;
#239 = CARTESIAN_POINT ( 'NONE',  ( 0.000000000000000000, 0.000000000000000000, 5.000000000000000000 ) ) ;
#240 = PERSON_AND_ORGANIZATION ( #200, #284 ) ;
#241 = ORIENTED_EDGE ( 'NONE', *, *, #249, .F. ) ;
#242 = APPLICATION_PROTOCOL_DEFINITION ( 'international standard', 'config_control_design', 1994, #10 ) ;
#243 = ORIENTED_EDGE ( 'NONE', *, *, #126, .F. ) ;
#244 = EDGE_CURVE ( 'NONE', #273, #157, #25, .T. ) ;
#245 = ORIENTED_EDGE ( 'NONE', *, *, #224, .F. ) ;
#246 = DIRECTION ( 'NONE',  ( 1.000000000000000000, 0.000000000000000000, 0.000000000000000000 ) ) ;
#247 = CARTESIAN_POINT ( 'NONE',  ( -5.100000000000001421, 0.000000000000000000, 320.0000000000000000 ) ) ;
#248 = SECURITY_CLASSIFICATION ( '', '', #144 ) ;
#249 = EDGE_CURVE ( 'NONE', #157, #71, #226, .T. ) ;
#250 = ORIENTED_EDGE ( 'NONE', *, *, #249, .T. ) ;
#251 = ORIENTED_EDGE ( 'NONE', *, *, #286, .T. ) ;
#252 = EDGE_LOOP ( 'NONE', ( #243, #9, #120, #229 ) ) ;
#253 = FACE_OUTER_BOUND ( 'NONE', #289, .T. ) ;
#254 = APPROVAL ( #114, 'NEURÈENÝ' ) ;
#255 = CARTESIAN_POINT ( 'NONE',  ( 5.300000000000000711, 0.000000000000000000, 4.999999999999991118 ) ) ;
#256 = CARTESIAN_POINT ( 'NONE',  ( 0.000000000000000000, 0.000000000000000000, 320.0000000000000000 ) ) ;
#257 = CARTESIAN_POINT ( 'NONE',  ( 5.300000000000000711, 0.000000000000000000, 5.199999999999982414 ) ) ;
#258 = CLOSED_SHELL ( 'NONE', ( #162, #95, #107, #38, #85, #197, #208, #280, #76 ) ) ;
#259 = EDGE_LOOP ( 'NONE', ( #198, #179, #92, #245 ) ) ;
#260 = APPROVAL_PERSON_ORGANIZATION ( #93, #254, #147 ) ;
#261 = PERSON_AND_ORGANIZATION ( #200, #284 ) ;
#262 = COORDINATED_UNIVERSAL_TIME_OFFSET ( 1, 0, .AHEAD. ) ;
#263 = ORIENTED_EDGE ( 'NONE', *, *, #224, .T. ) ;
#264 = AXIS2_PLACEMENT_3D ( 'NONE', #12, #102, #105 ) ;
#265 =( NAMED_UNIT ( * ) SI_UNIT ( $, .STERADIAN. ) SOLID_ANGLE_UNIT ( ) );
#266 = APPROVAL ( #141, 'NEURÈENÝ' ) ;
#267 = VECTOR ( 'NONE', #164, 1000.000000000000000 ) ;
#268 = MECHANICAL_CONTEXT ( 'NONE', #10, 'mechanical' ) ;
#269 = DIRECTION ( 'NONE',  ( 0.000000000000000000, 0.000000000000000000, 1.000000000000000000 ) ) ;
#270 = FACE_BOUND ( 'NONE', #118, .T. ) ;
#271 = PRODUCT_DEFINITION_SHAPE ( 'NONE', 'NONE',  #123 ) ;
#272 = CARTESIAN_POINT ( 'NONE',  ( 0.000000000000000000, 0.000000000000000000, 320.0000000000000000 ) ) ;
#273 = VERTEX_POINT ( 'NONE', #298 ) ;
#274 = TOROIDAL_SURFACE ( 'NONE', #163, 5.300000000000000711, 0.2000000000000000111 ) ;
#275 = CARTESIAN_POINT ( 'NONE',  ( 0.000000000000000000, 0.000000000000000000, 0.000000000000000000 ) ) ;
#276 = DIRECTION ( 'NONE',  ( -1.000000000000000000, 0.000000000000000000, 0.000000000000000000 ) ) ;
#277 = AXIS2_PLACEMENT_3D ( 'NONE', #40, #82, #60 ) ;
#278 = CARTESIAN_POINT ( 'NONE',  ( 0.000000000000000000, 0.000000000000000000, 5.000000000000000000 ) ) ;
#279 = DIRECTION ( 'NONE',  ( 0.000000000000000000, 0.000000000000000000, 1.000000000000000000 ) ) ;
#280 = ADVANCED_FACE ( 'NONE', ( #81 ), #161, .T. ) ;
#281 = DIRECTION ( 'NONE',  ( 1.000000000000000000, 0.000000000000000000, 0.000000000000000000 ) ) ;
#282 = CC_DESIGN_APPROVAL ( #266, ( #115 ) ) ;
#283 = DIRECTION ( 'NONE',  ( -0.000000000000000000, -0.000000000000000000, -1.000000000000000000 ) ) ;
#284 = ORGANIZATION ( 'NEURÈENÝ', 'NEURÈENÝ', '' ) ;
#285 = PERSON_AND_ORGANIZATION_ROLE ( 'classification_officer' ) ;
#286 = EDGE_CURVE ( 'NONE', #13, #273, #303, .T. ) ;
#287 = CALENDAR_DATE ( 2022, 7, 7 ) ;
#288 = FACE_OUTER_BOUND ( 'NONE', #259, .T. ) ;
#289 = EDGE_LOOP ( 'NONE', ( #297, #79, #128, #96 ) ) ;
#290 = DESIGN_CONTEXT ( 'detailed design', #21, 'design' ) ;
#291 = AXIS2_PLACEMENT_3D ( 'NONE', #177, #227, #74 ) ;
#292 = FACE_OUTER_BOUND ( 'NONE', #205, .T. ) ;
#293 = ADVANCED_BREP_SHAPE_REPRESENTATION ( 'dd34', ( #220, #64 ), #203 ) ;
#294 = VECTOR ( 'NONE', #49, 1000.000000000000000 ) ;
#295 = CARTESIAN_POINT ( 'NONE',  ( -5.100000000000001421, 0.000000000000000000, 5.199999999999982414 ) ) ;
#296 = SHAPE_DEFINITION_REPRESENTATION ( #271, #293 ) ;
#297 = ORIENTED_EDGE ( 'NONE', *, *, #237, .F. ) ;
#298 = CARTESIAN_POINT ( 'NONE',  ( 5.100000000000001421, 6.245698675651502811E-16, 5.199999999999982414 ) ) ;
#299 = CARTESIAN_POINT ( 'NONE',  ( -8.000000000000000000, 0.000000000000000000, 5.000000000000000000 ) ) ;
#300 = LOCAL_TIME ( 11, 52, 29.00000000000000000, #262 ) ;
#301 = EDGE_CURVE ( 'NONE', #133, #207, #306, .T. ) ;
#302 = DIRECTION ( 'NONE',  ( 0.000000000000000000, 0.000000000000000000, 1.000000000000000000 ) ) ;
#303 = LINE ( 'NONE', #27, #294 ) ;
#304 = AXIS2_PLACEMENT_3D ( 'NONE', #16, #129, #103 ) ;
#305 = DIRECTION ( 'NONE',  ( 1.000000000000000000, 0.000000000000000000, 0.000000000000000000 ) ) ;
#306 = CIRCLE ( 'NONE', #121, 8.000000000000000000 ) ;
#307 = DATE_AND_TIME ( #287, #104 ) ;
ENDSEC;
END-ISO-10303-21;
