ISO-10303-21;
HEADER;
FILE_DESCRIPTION (( 'STEP AP203' ),
    '1' );
FILE_NAME ('feb5.STEP',
    '2022-07-07T09:33:46',
    ( '' ),
    ( '' ),
    'SwSTEP 2.0',
    'SolidWorks 2019',
    '' );
FILE_SCHEMA (( 'CONFIG_CONTROL_DESIGN' ));
ENDSEC;

DATA;
#1 = ORIENTED_EDGE ( 'NONE', *, *, #64, .T. ) ;
#2 = ORIENTED_EDGE ( 'NONE', *, *, #289, .T. ) ;
#3 = CARTESIAN_POINT ( 'NONE',  ( -10.20000000000000107, 1.249139735130300365E-15, 8.199999999999985079 ) ) ;
#4 = DIRECTION ( 'NONE',  ( 0.000000000000000000, 0.000000000000000000, 1.000000000000000000 ) ) ;
#5 = DIRECTION ( 'NONE',  ( 1.000000000000000000, 0.000000000000000000, 0.000000000000000000 ) ) ;
#6 = PLANE ( 'NONE',  #232 ) ;
#7 = APPROVAL_PERSON_ORGANIZATION ( #114, #298, #17 ) ;
#8 = AXIS2_PLACEMENT_3D ( 'NONE', #162, #235, #42 ) ;
#9 = CARTESIAN_POINT ( 'NONE',  ( 0.000000000000000000, 0.000000000000000000, 8.199999999999985079 ) ) ;
#10 = CIRCLE ( 'NONE', #237, 13.00000000000000178 ) ;
#11 = CARTESIAN_POINT ( 'NONE',  ( 0.000000000000000000, 0.000000000000000000, 508.0000000000000000 ) ) ;
#12 = FACE_OUTER_BOUND ( 'NONE', #92, .T. ) ;
#13 = COORDINATED_UNIVERSAL_TIME_OFFSET ( 1, 0, .AHEAD. ) ;
#14 = AXIS2_PLACEMENT_3D ( 'NONE', #102, #217, #175 ) ;
#15 = DATE_TIME_ROLE ( 'creation_date' ) ;
#16 = ORIENTED_EDGE ( 'NONE', *, *, #55, .F. ) ;
#17 = APPROVAL_ROLE ( '' ) ;
#18 = EDGE_LOOP ( 'NONE', ( #261, #47 ) ) ;
#19 = TOROIDAL_SURFACE ( 'NONE', #130, 10.20000000000000107, 0.2000000000000000111 ) ;
#20 = CARTESIAN_POINT ( 'NONE',  ( 0.000000000000000000, 0.000000000000000000, 0.000000000000000000 ) ) ;
#21 = ADVANCED_FACE ( 'NONE', ( #116 ), #50, .F. ) ;
#22 = EDGE_LOOP ( 'NONE', ( #26, #209, #71, #73 ) ) ;
#23 = CARTESIAN_POINT ( 'NONE',  ( 0.000000000000000000, 0.000000000000000000, 0.000000000000000000 ) ) ;
#24 = EDGE_LOOP ( 'NONE', ( #231, #168 ) ) ;
#25 = ORIENTED_EDGE ( 'NONE', *, *, #148, .F. ) ;
#26 = ORIENTED_EDGE ( 'NONE', *, *, #44, .F. ) ;
#27 = DIRECTION ( 'NONE',  ( 1.224646799147353207E-16, 1.000000000000000000, -0.000000000000000000 ) ) ;
#28 = FACE_OUTER_BOUND ( 'NONE', #22, .T. ) ;
#29 = AXIS2_PLACEMENT_3D ( 'NONE', #23, #121, #286 ) ;
#30 = CARTESIAN_POINT ( 'NONE',  ( -10.00000000000000000, 0.000000000000000000, 8.199999999999985079 ) ) ;
#31 = UNCERTAINTY_MEASURE_WITH_UNIT (LENGTH_MEASURE( 1.000000000000000082E-05 ), #43, 'distance_accuracy_value', 'NONE');
#32 = CARTESIAN_POINT ( 'NONE',  ( -10.00000000000000000, 0.000000000000000000, 508.0000000000000000 ) ) ;
#33 = FACE_OUTER_BOUND ( 'NONE', #281, .T. ) ;
#34 = ADVANCED_FACE ( 'NONE', ( #142 ), #97, .T. ) ;
#35 = FACE_BOUND ( 'NONE', #18, .T. ) ;
#36 = PERSON_AND_ORGANIZATION ( #174, #161 ) ;
#37 = CALENDAR_DATE ( 2022, 7, 7 ) ;
#38 = CC_DESIGN_PERSON_AND_ORGANIZATION_ASSIGNMENT ( #273, #112, ( #139 ) ) ;
#39 = CARTESIAN_POINT ( 'NONE',  ( 13.00000000000000178, 1.592040838891559293E-15, 8.000000000000000000 ) ) ;
#40 = FACE_OUTER_BOUND ( 'NONE', #252, .T. ) ;
#41 = DIRECTION ( 'NONE',  ( 0.000000000000000000, 0.000000000000000000, 1.000000000000000000 ) ) ;
#42 = DIRECTION ( 'NONE',  ( 1.000000000000000000, 0.000000000000000000, -0.000000000000000000 ) ) ;
#43 =( LENGTH_UNIT ( ) NAMED_UNIT ( * ) SI_UNIT ( .MILLI., .METRE. ) );
#44 = EDGE_CURVE ( 'NONE', #208, #258, #110, .T. ) ;
#45 = ORIENTED_EDGE ( 'NONE', *, *, #100, .F. ) ;
#46 = SHAPE_DEFINITION_REPRESENTATION ( #290, #76 ) ;
#47 = ORIENTED_EDGE ( 'NONE', *, *, #272, .T. ) ;
#48 = LOCAL_TIME ( 11, 33, 46.00000000000000000, #203 ) ;
#49 = EDGE_LOOP ( 'NONE', ( #51, #234 ) ) ;
#50 = PLANE ( 'NONE',  #8 ) ;
#51 = ORIENTED_EDGE ( 'NONE', *, *, #294, .T. ) ;
#52 = DATE_AND_TIME ( #164, #247 ) ;
#53 = ORIENTED_EDGE ( 'NONE', *, *, #44, .T. ) ;
#54 = DIRECTION ( 'NONE',  ( -1.000000000000000000, 0.000000000000000000, 0.000000000000000000 ) ) ;
#55 = EDGE_CURVE ( 'NONE', #208, #143, #146, .T. ) ;
#56 = AXIS2_PLACEMENT_3D ( 'NONE', #220, #270, #54 ) ;
#57 = CARTESIAN_POINT ( 'NONE',  ( 13.00000000000000178, 1.592040838891559293E-15, 8.000000000000000000 ) ) ;
#58 = CC_DESIGN_DATE_AND_TIME_ASSIGNMENT ( #297, #224, ( #200 ) ) ;
#59 = CARTESIAN_POINT ( 'NONE',  ( -13.00000000000000178, 0.000000000000000000, 8.000000000000000000 ) ) ;
#60 = EDGE_CURVE ( 'NONE', #233, #223, #291, .T. ) ;
#61 = DIRECTION ( 'NONE',  ( -0.000000000000000000, -0.000000000000000000, -1.000000000000000000 ) ) ;
#62 = DIRECTION ( 'NONE',  ( -0.000000000000000000, -0.000000000000000000, -1.000000000000000000 ) ) ;
#63 = PERSON_AND_ORGANIZATION ( #174, #161 ) ;
#64 = EDGE_CURVE ( 'NONE', #223, #233, #259, .T. ) ;
#65 = AXIS2_PLACEMENT_3D ( 'NONE', #229, #212, #125 ) ;
#66 = DIRECTION ( 'NONE',  ( 0.000000000000000000, 0.000000000000000000, 1.000000000000000000 ) ) ;
#67 = CARTESIAN_POINT ( 'NONE',  ( 0.000000000000000000, 0.000000000000000000, 508.0000000000000000 ) ) ;
#68 = DIRECTION ( 'NONE',  ( 1.000000000000000000, 0.000000000000000000, 0.000000000000000000 ) ) ;
#69 = COORDINATED_UNIVERSAL_TIME_OFFSET ( 1, 0, .AHEAD. ) ;
#70 = ORIENTED_EDGE ( 'NONE', *, *, #104, .T. ) ;
#71 = ORIENTED_EDGE ( 'NONE', *, *, #194, .F. ) ;
#72 = AXIS2_PLACEMENT_3D ( 'NONE', #213, #219, #191 ) ;
#73 = ORIENTED_EDGE ( 'NONE', *, *, #266, .F. ) ;
#74 = DIRECTION ( 'NONE',  ( 1.000000000000000000, 0.000000000000000000, 0.000000000000000000 ) ) ;
#75 = CARTESIAN_POINT ( 'NONE',  ( 0.000000000000000000, 0.000000000000000000, 8.000000000000000000 ) ) ;
#76 = ADVANCED_BREP_SHAPE_REPRESENTATION ( 'feb5', ( #230, #165 ), #155 ) ;
#77 = DIRECTION ( 'NONE',  ( 1.000000000000000000, 0.000000000000000000, 0.000000000000000000 ) ) ;
#78 = EDGE_CURVE ( 'NONE', #263, #160, #83, .T. ) ;
#79 = LINE ( 'NONE', #59, #167 ) ;
#80 = CC_DESIGN_SECURITY_CLASSIFICATION ( #200, ( #215 ) ) ;
#81 = DIRECTION ( 'NONE',  ( -0.000000000000000000, -0.000000000000000000, -1.000000000000000000 ) ) ;
#82 = CC_DESIGN_APPROVAL ( #85, ( #215 ) ) ;
#83 = CIRCLE ( 'NONE', #255, 13.00000000000000178 ) ;
#84 = SECURITY_CLASSIFICATION_LEVEL ( 'unclassified' ) ;
#85 = APPROVAL ( #278, 'NEURÈENÝ' ) ;
#86 = DATE_AND_TIME ( #251, #257 ) ;
#87 = APPROVAL_PERSON_ORGANIZATION ( #36, #85, #159 ) ;
#88 = DATE_AND_TIME ( #299, #98 ) ;
#89 = AXIS2_PLACEMENT_3D ( 'NONE', #99, #4, #138 ) ;
#90 = ORIENTED_EDGE ( 'NONE', *, *, #241, .F. ) ;
#91 = DIRECTION ( 'NONE',  ( 1.000000000000000000, 0.000000000000000000, 0.000000000000000000 ) ) ;
#92 = EDGE_LOOP ( 'NONE', ( #201, #306, #249, #256 ) ) ;
#93 = APPROVAL_STATUS ( 'not_yet_approved' ) ;
#94 = CIRCLE ( 'NONE', #29, 13.00000000000000178 ) ;
#95 = ADVANCED_FACE ( 'NONE', ( #40 ), #158, .F. ) ;
#96 = EDGE_LOOP ( 'NONE', ( #45, #210, #144, #90 ) ) ;
#97 = PLANE ( 'NONE',  #207 ) ;
#98 = LOCAL_TIME ( 11, 33, 46.00000000000000000, #157 ) ;
#99 = CARTESIAN_POINT ( 'NONE',  ( 0.000000000000000000, 0.000000000000000000, 508.0000000000000000 ) ) ;
#100 = EDGE_CURVE ( 'NONE', #137, #113, #127, .T. ) ;
#101 = DIRECTION ( 'NONE',  ( 1.000000000000000000, 0.000000000000000000, 0.000000000000000000 ) ) ;
#102 = CARTESIAN_POINT ( 'NONE',  ( 0.000000000000000000, 0.000000000000000000, 8.199999999999985079 ) ) ;
#103 = DIRECTION ( 'NONE',  ( -0.000000000000000000, -0.000000000000000000, -1.000000000000000000 ) ) ;
#104 = EDGE_CURVE ( 'NONE', #160, #263, #94, .T. ) ;
#105 = CARTESIAN_POINT ( 'NONE',  ( 13.00000000000000178, 1.592040838891559293E-15, 0.000000000000000000 ) ) ;
#106 = VECTOR ( 'NONE', #81, 1000.000000000000000 ) ;
#107 = FACE_OUTER_BOUND ( 'NONE', #49, .T. ) ;
#108 = CYLINDRICAL_SURFACE ( 'NONE', #189, 10.00000000000000000 ) ;
#109 = PERSON_AND_ORGANIZATION ( #174, #161 ) ;
#110 = CIRCLE ( 'NONE', #65, 10.00000000000000000 ) ;
#111 = APPROVAL_STATUS ( 'not_yet_approved' ) ;
#112 = PERSON_AND_ORGANIZATION_ROLE ( 'creator' ) ;
#113 = VERTEX_POINT ( 'NONE', #132 ) ;
#114 = PERSON_AND_ORGANIZATION ( #174, #161 ) ;
#115 = CIRCLE ( 'NONE', #283, 10.20000000000000107 ) ;
#116 = FACE_OUTER_BOUND ( 'NONE', #24, .T. ) ;
#117 =( NAMED_UNIT ( * ) SI_UNIT ( $, .STERADIAN. ) SOLID_ANGLE_UNIT ( ) );
#118 = VECTOR ( 'NONE', #302, 1000.000000000000000 ) ;
#119 = ADVANCED_FACE ( 'NONE', ( #35, #107 ), #6, .T. ) ;
#120 = AXIS2_PLACEMENT_3D ( 'NONE', #182, #280, #68 ) ;
#121 = DIRECTION ( 'NONE',  ( 0.000000000000000000, 0.000000000000000000, 1.000000000000000000 ) ) ;
#122 = ORIENTED_EDGE ( 'NONE', *, *, #304, .F. ) ;
#123 = ORIENTED_EDGE ( 'NONE', *, *, #152, .F. ) ;
#124 = APPROVAL_DATE_TIME ( #52, #268 ) ;
#125 = DIRECTION ( 'NONE',  ( 1.000000000000000000, 0.000000000000000000, 0.000000000000000000 ) ) ;
#126 = PRODUCT_RELATED_PRODUCT_CATEGORY ( 'detail', '', ( #172 ) ) ;
#127 = CIRCLE ( 'NONE', #120, 13.00000000000000178 ) ;
#128 = CARTESIAN_POINT ( 'NONE',  ( 10.00000000000000000, 1.224646799147353256E-15, 8.199999999999985079 ) ) ;
#129 = DIRECTION ( 'NONE',  ( 1.000000000000000000, 0.000000000000000000, -0.000000000000000000 ) ) ;
#130 = AXIS2_PLACEMENT_3D ( 'NONE', #9, #288, #242 ) ;
#131 = DIRECTION ( 'NONE',  ( -0.000000000000000000, -0.000000000000000000, -1.000000000000000000 ) ) ;
#132 = CARTESIAN_POINT ( 'NONE',  ( -13.00000000000000178, 0.000000000000000000, 8.000000000000000000 ) ) ;
#133 = AXIS2_PLACEMENT_3D ( 'NONE', #135, #303, #279 ) ;
#134 = APPROVAL_DATE_TIME ( #88, #298 ) ;
#135 = CARTESIAN_POINT ( 'NONE',  ( 0.000000000000000000, 0.000000000000000000, 8.199999999999985079 ) ) ;
#136 = PERSON_AND_ORGANIZATION ( #174, #161 ) ;
#137 = VERTEX_POINT ( 'NONE', #57 ) ;
#138 = DIRECTION ( 'NONE',  ( 1.000000000000000000, 0.000000000000000000, 0.000000000000000000 ) ) ;
#139 = PRODUCT_DEFINITION ( 'NEZNÁMÝ', '', #215, #287 ) ;
#140 = ORIENTED_EDGE ( 'NONE', *, *, #272, .F. ) ;
#141 = CC_DESIGN_PERSON_AND_ORGANIZATION_ASSIGNMENT ( #109, #296, ( #215 ) ) ;
#142 = FACE_OUTER_BOUND ( 'NONE', #260, .T. ) ;
#143 = VERTEX_POINT ( 'NONE', #293 ) ;
#144 = ORIENTED_EDGE ( 'NONE', *, *, #78, .T. ) ;
#145 = CARTESIAN_POINT ( 'NONE',  ( 0.000000000000000000, 0.000000000000000000, 8.000000000000000000 ) ) ;
#146 = CIRCLE ( 'NONE', #218, 0.2000000000000005107 ) ;
#147 = DIRECTION ( 'NONE',  ( -0.000000000000000000, -0.000000000000000000, -1.000000000000000000 ) ) ;
#148 = EDGE_CURVE ( 'NONE', #223, #258, #169, .T. ) ;
#149 = FACE_OUTER_BOUND ( 'NONE', #254, .T. ) ;
#150 = CARTESIAN_POINT ( 'NONE',  ( 10.00000000000000000, 1.224646799147353256E-15, 508.0000000000000000 ) ) ;
#151 = FACE_OUTER_BOUND ( 'NONE', #96, .T. ) ;
#152 = EDGE_CURVE ( 'NONE', #258, #208, #307, .T. ) ;
#153 = PERSON_AND_ORGANIZATION_ROLE ( 'design_owner' ) ;
#154 = APPROVAL_DATE_TIME ( #86, #85 ) ;
#155 =( GEOMETRIC_REPRESENTATION_CONTEXT ( 3 ) GLOBAL_UNCERTAINTY_ASSIGNED_CONTEXT ( ( #31 ) ) GLOBAL_UNIT_ASSIGNED_CONTEXT ( ( #43, #228, #117 ) ) REPRESENTATION_CONTEXT ( 'NONE', 'WORKASPACE' ) );
#156 = CC_DESIGN_PERSON_AND_ORGANIZATION_ASSIGNMENT ( #136, #274, ( #215 ) ) ;
#157 = COORDINATED_UNIVERSAL_TIME_OFFSET ( 1, 0, .AHEAD. ) ;
#158 = TOROIDAL_SURFACE ( 'NONE', #133, 10.20000000000000107, 0.2000000000000000111 ) ;
#159 = APPROVAL_ROLE ( '' ) ;
#160 = VERTEX_POINT ( 'NONE', #292 ) ;
#161 = ORGANIZATION ( 'NEURÈENÝ', 'NEURÈENÝ', '' ) ;
#162 = CARTESIAN_POINT ( 'NONE',  ( 0.000000000000000000, 0.000000000000000000, 0.000000000000000000 ) ) ;
#163 = ORIENTED_EDGE ( 'NONE', *, *, #60, .T. ) ;
#164 = CALENDAR_DATE ( 2022, 7, 7 ) ;
#165 = AXIS2_PLACEMENT_3D ( 'NONE', #20, #41, #204 ) ;
#166 = ORIENTED_EDGE ( 'NONE', *, *, #266, .T. ) ;
#167 = VECTOR ( 'NONE', #131, 1000.000000000000000 ) ;
#168 = ORIENTED_EDGE ( 'NONE', *, *, #78, .F. ) ;
#169 = LINE ( 'NONE', #193, #106 ) ;
#170 = DIRECTION ( 'NONE',  ( -0.000000000000000000, -0.000000000000000000, -1.000000000000000000 ) ) ;
#171 = ADVANCED_FACE ( 'NONE', ( #149 ), #176, .T. ) ;
#172 = PRODUCT ( 'feb5', 'feb5', '', ( #271 ) ) ;
#173 = CARTESIAN_POINT ( 'NONE',  ( 10.20000000000000107, 0.000000000000000000, 7.999999999999992895 ) ) ;
#174 = PERSON ( 'NEURÈENÝ', 'NEURÈENÝ', 'NEURÈENÝ', ('NEURÈENÝ'), ('NEURÈENÝ'), ('NEURÈENÝ') ) ;
#175 = DIRECTION ( 'NONE',  ( 1.000000000000000000, 0.000000000000000000, 0.000000000000000000 ) ) ;
#176 = CYLINDRICAL_SURFACE ( 'NONE', #277, 10.00000000000000000 ) ;
#177 = APPLICATION_PROTOCOL_DEFINITION ( 'international standard', 'config_control_design', 1994, #216 ) ;
#178 = PERSON_AND_ORGANIZATION ( #174, #161 ) ;
#179 = CC_DESIGN_APPROVAL ( #298, ( #139 ) ) ;
#180 = DATE_AND_TIME ( #221, #48 ) ;
#181 = CARTESIAN_POINT ( 'NONE',  ( 0.000000000000000000, 0.000000000000000000, 0.000000000000000000 ) ) ;
#182 = CARTESIAN_POINT ( 'NONE',  ( 0.000000000000000000, 0.000000000000000000, 8.000000000000000000 ) ) ;
#183 = ADVANCED_FACE ( 'NONE', ( #151 ), #264, .T. ) ;
#184 = AXIS2_PLACEMENT_3D ( 'NONE', #75, #196, #295 ) ;
#185 = ADVANCED_FACE ( 'NONE', ( #33 ), #195, .T. ) ;
#186 = DIRECTION ( 'NONE',  ( 0.000000000000000000, 0.000000000000000000, 1.000000000000000000 ) ) ;
#187 = APPROVAL_PERSON_ORGANIZATION ( #262, #268, #305 ) ;
#188 = DIRECTION ( 'NONE',  ( 0.000000000000000000, 0.000000000000000000, 1.000000000000000000 ) ) ;
#189 = AXIS2_PLACEMENT_3D ( 'NONE', #265, #170, #240 ) ;
#190 = DIRECTION ( 'NONE',  ( 1.000000000000000000, 0.000000000000000000, -0.000000000000000000 ) ) ;
#191 = DIRECTION ( 'NONE',  ( 0.000000000000000000, 0.000000000000000000, -1.000000000000000000 ) ) ;
#192 = DIRECTION ( 'NONE',  ( -1.000000000000000000, 0.000000000000000000, 0.000000000000000000 ) ) ;
#193 = CARTESIAN_POINT ( 'NONE',  ( 10.00000000000000000, 1.224646799147353256E-15, 508.0000000000000000 ) ) ;
#194 = EDGE_CURVE ( 'NONE', #282, #143, #239, .T. ) ;
#195 = CYLINDRICAL_SURFACE ( 'NONE', #56, 13.00000000000000178 ) ;
#196 = DIRECTION ( 'NONE',  ( -0.000000000000000000, -0.000000000000000000, -1.000000000000000000 ) ) ;
#197 = AXIS2_PLACEMENT_3D ( 'NONE', #67, #188, #101 ) ;
#198 = PERSON_AND_ORGANIZATION_ROLE ( 'classification_officer' ) ;
#199 = LINE ( 'NONE', #39, #118 ) ;
#200 = SECURITY_CLASSIFICATION ( '', '', #84 ) ;
#201 = ORIENTED_EDGE ( 'NONE', *, *, #64, .F. ) ;
#202 = VECTOR ( 'NONE', #61, 1000.000000000000000 ) ;
#203 = COORDINATED_UNIVERSAL_TIME_OFFSET ( 1, 0, .AHEAD. ) ;
#204 = DIRECTION ( 'NONE',  ( 1.000000000000000000, 0.000000000000000000, 0.000000000000000000 ) ) ;
#205 = ORIENTED_EDGE ( 'NONE', *, *, #60, .F. ) ;
#206 = ADVANCED_FACE ( 'NONE', ( #12 ), #108, .T. ) ;
#207 = AXIS2_PLACEMENT_3D ( 'NONE', #211, #186, #190 ) ;
#208 = VERTEX_POINT ( 'NONE', #30 ) ;
#209 = ORIENTED_EDGE ( 'NONE', *, *, #55, .T. ) ;
#210 = ORIENTED_EDGE ( 'NONE', *, *, #304, .T. ) ;
#211 = CARTESIAN_POINT ( 'NONE',  ( 0.000000000000000000, 0.000000000000000000, 508.0000000000000000 ) ) ;
#212 = DIRECTION ( 'NONE',  ( 0.000000000000000000, 0.000000000000000000, 1.000000000000000000 ) ) ;
#213 = CARTESIAN_POINT ( 'NONE',  ( 10.20000000000000107, 0.000000000000000000, 8.199999999999985079 ) ) ;
#214 = CARTESIAN_POINT ( 'NONE',  ( 0.000000000000000000, 0.000000000000000000, 8.000000000000000000 ) ) ;
#215 = PRODUCT_DEFINITION_FORMATION_WITH_SPECIFIED_SOURCE ( 'LIBOVOLNÝ', '', #172, .NOT_KNOWN. ) ;
#216 = APPLICATION_CONTEXT ( 'configuration controlled 3d designs of mechanical parts and assemblies' ) ;
#217 = DIRECTION ( 'NONE',  ( 0.000000000000000000, 0.000000000000000000, 1.000000000000000000 ) ) ;
#218 = AXIS2_PLACEMENT_3D ( 'NONE', #3, #27, #300 ) ;
#219 = DIRECTION ( 'NONE',  ( 0.000000000000000000, -1.000000000000000000, 0.000000000000000000 ) ) ;
#220 = CARTESIAN_POINT ( 'NONE',  ( 0.000000000000000000, 0.000000000000000000, 8.000000000000000000 ) ) ;
#221 = CALENDAR_DATE ( 2022, 7, 7 ) ;
#222 = AXIS2_PLACEMENT_3D ( 'NONE', #145, #62, #5 ) ;
#223 = VERTEX_POINT ( 'NONE', #150 ) ;
#224 = DATE_TIME_ROLE ( 'classification_date' ) ;
#225 = APPLICATION_CONTEXT ( 'configuration controlled 3d designs of mechanical parts and assemblies' ) ;
#226 = ORIENTED_EDGE ( 'NONE', *, *, #241, .T. ) ;
#227 = CC_DESIGN_APPROVAL ( #268, ( #200 ) ) ;
#228 =( NAMED_UNIT ( * ) PLANE_ANGLE_UNIT ( ) SI_UNIT ( $, .RADIAN. ) );
#229 = CARTESIAN_POINT ( 'NONE',  ( 0.000000000000000000, 0.000000000000000000, 8.199999999999985079 ) ) ;
#230 = MANIFOLD_SOLID_BREP ( 'Zaoblit1', #275 ) ;
#231 = ORIENTED_EDGE ( 'NONE', *, *, #104, .F. ) ;
#232 = AXIS2_PLACEMENT_3D ( 'NONE', #244, #267, #129 ) ;
#233 = VERTEX_POINT ( 'NONE', #238 ) ;
#234 = ORIENTED_EDGE ( 'NONE', *, *, #100, .T. ) ;
#235 = DIRECTION ( 'NONE',  ( 0.000000000000000000, 0.000000000000000000, 1.000000000000000000 ) ) ;
#236 = CC_DESIGN_PERSON_AND_ORGANIZATION_ASSIGNMENT ( #63, #153, ( #172 ) ) ;
#237 = AXIS2_PLACEMENT_3D ( 'NONE', #243, #66, #91 ) ;
#238 = CARTESIAN_POINT ( 'NONE',  ( -10.00000000000000000, 0.000000000000000000, 508.0000000000000000 ) ) ;
#239 = CIRCLE ( 'NONE', #222, 10.20000000000000107 ) ;
#240 = DIRECTION ( 'NONE',  ( -1.000000000000000000, 0.000000000000000000, 0.000000000000000000 ) ) ;
#241 = EDGE_CURVE ( 'NONE', #113, #160, #79, .T. ) ;
#242 = DIRECTION ( 'NONE',  ( 1.000000000000000000, 0.000000000000000000, 0.000000000000000000 ) ) ;
#243 = CARTESIAN_POINT ( 'NONE',  ( 0.000000000000000000, 0.000000000000000000, 8.000000000000000000 ) ) ;
#244 = CARTESIAN_POINT ( 'NONE',  ( 0.000000000000000000, 0.000000000000000000, 8.000000000000000000 ) ) ;
#245 = APPLICATION_PROTOCOL_DEFINITION ( 'international standard', 'config_control_design', 1994, #225 ) ;
#246 = CC_DESIGN_DATE_AND_TIME_ASSIGNMENT ( #180, #15, ( #139 ) ) ;
#247 = LOCAL_TIME ( 11, 33, 46.00000000000000000, #69 ) ;
#248 = COORDINATED_UNIVERSAL_TIME_OFFSET ( 1, 0, .AHEAD. ) ;
#249 = ORIENTED_EDGE ( 'NONE', *, *, #152, .T. ) ;
#250 = ADVANCED_FACE ( 'NONE', ( #28 ), #19, .F. ) ;
#251 = CALENDAR_DATE ( 2022, 7, 7 ) ;
#252 = EDGE_LOOP ( 'NONE', ( #16, #123, #166, #140 ) ) ;
#253 = LOCAL_TIME ( 11, 33, 46.00000000000000000, #248 ) ;
#254 = EDGE_LOOP ( 'NONE', ( #25, #205, #2, #53 ) ) ;
#255 = AXIS2_PLACEMENT_3D ( 'NONE', #181, #285, #74 ) ;
#256 = ORIENTED_EDGE ( 'NONE', *, *, #289, .F. ) ;
#257 = LOCAL_TIME ( 11, 33, 46.00000000000000000, #13 ) ;
#258 = VERTEX_POINT ( 'NONE', #128 ) ;
#259 = CIRCLE ( 'NONE', #197, 10.00000000000000000 ) ;
#260 = EDGE_LOOP ( 'NONE', ( #163, #1 ) ) ;
#261 = ORIENTED_EDGE ( 'NONE', *, *, #194, .T. ) ;
#262 = PERSON_AND_ORGANIZATION ( #174, #161 ) ;
#263 = VERTEX_POINT ( 'NONE', #105 ) ;
#264 = CYLINDRICAL_SURFACE ( 'NONE', #184, 13.00000000000000178 ) ;
#265 = CARTESIAN_POINT ( 'NONE',  ( 0.000000000000000000, 0.000000000000000000, 508.0000000000000000 ) ) ;
#266 = EDGE_CURVE ( 'NONE', #258, #282, #301, .T. ) ;
#267 = DIRECTION ( 'NONE',  ( 0.000000000000000000, 0.000000000000000000, 1.000000000000000000 ) ) ;
#268 = APPROVAL ( #93, 'NEURÈENÝ' ) ;
#269 = LINE ( 'NONE', #32, #202 ) ;
#270 = DIRECTION ( 'NONE',  ( -0.000000000000000000, -0.000000000000000000, -1.000000000000000000 ) ) ;
#271 = MECHANICAL_CONTEXT ( 'NONE', #216, 'mechanical' ) ;
#272 = EDGE_CURVE ( 'NONE', #143, #282, #115, .T. ) ;
#273 = PERSON_AND_ORGANIZATION ( #174, #161 ) ;
#274 = PERSON_AND_ORGANIZATION_ROLE ( 'design_supplier' ) ;
#275 = CLOSED_SHELL ( 'NONE', ( #250, #206, #183, #185, #119, #21, #171, #34, #95 ) ) ;
#276 = CC_DESIGN_PERSON_AND_ORGANIZATION_ASSIGNMENT ( #178, #198, ( #200 ) ) ;
#277 = AXIS2_PLACEMENT_3D ( 'NONE', #11, #147, #192 ) ;
#278 = APPROVAL_STATUS ( 'not_yet_approved' ) ;
#279 = DIRECTION ( 'NONE',  ( 1.000000000000000000, 0.000000000000000000, 0.000000000000000000 ) ) ;
#280 = DIRECTION ( 'NONE',  ( 0.000000000000000000, 0.000000000000000000, 1.000000000000000000 ) ) ;
#281 = EDGE_LOOP ( 'NONE', ( #122, #284, #226, #70 ) ) ;
#282 = VERTEX_POINT ( 'NONE', #173 ) ;
#283 = AXIS2_PLACEMENT_3D ( 'NONE', #214, #103, #77 ) ;
#284 = ORIENTED_EDGE ( 'NONE', *, *, #294, .F. ) ;
#285 = DIRECTION ( 'NONE',  ( 0.000000000000000000, 0.000000000000000000, 1.000000000000000000 ) ) ;
#286 = DIRECTION ( 'NONE',  ( 1.000000000000000000, 0.000000000000000000, 0.000000000000000000 ) ) ;
#287 = DESIGN_CONTEXT ( 'detailed design', #225, 'design' ) ;
#288 = DIRECTION ( 'NONE',  ( 0.000000000000000000, 0.000000000000000000, 1.000000000000000000 ) ) ;
#289 = EDGE_CURVE ( 'NONE', #233, #208, #269, .T. ) ;
#290 = PRODUCT_DEFINITION_SHAPE ( 'NONE', 'NONE',  #139 ) ;
#291 = CIRCLE ( 'NONE', #89, 10.00000000000000000 ) ;
#292 = CARTESIAN_POINT ( 'NONE',  ( -13.00000000000000178, 0.000000000000000000, 0.000000000000000000 ) ) ;
#293 = CARTESIAN_POINT ( 'NONE',  ( -10.20000000000000107, 1.249139735130300365E-15, 7.999999999999992895 ) ) ;
#294 = EDGE_CURVE ( 'NONE', #113, #137, #10, .T. ) ;
#295 = DIRECTION ( 'NONE',  ( -1.000000000000000000, 0.000000000000000000, 0.000000000000000000 ) ) ;
#296 = PERSON_AND_ORGANIZATION_ROLE ( 'creator' ) ;
#297 = DATE_AND_TIME ( #37, #253 ) ;
#298 = APPROVAL ( #111, 'NEURÈENÝ' ) ;
#299 = CALENDAR_DATE ( 2022, 7, 7 ) ;
#300 = DIRECTION ( 'NONE',  ( -1.000000000000000000, 1.224646799147353207E-16, 0.000000000000000000 ) ) ;
#301 = CIRCLE ( 'NONE', #72, 0.2000000000000005107 ) ;
#302 = DIRECTION ( 'NONE',  ( -0.000000000000000000, -0.000000000000000000, -1.000000000000000000 ) ) ;
#303 = DIRECTION ( 'NONE',  ( 0.000000000000000000, 0.000000000000000000, 1.000000000000000000 ) ) ;
#304 = EDGE_CURVE ( 'NONE', #137, #263, #199, .T. ) ;
#305 = APPROVAL_ROLE ( '' ) ;
#306 = ORIENTED_EDGE ( 'NONE', *, *, #148, .T. ) ;
#307 = CIRCLE ( 'NONE', #14, 10.00000000000000000 ) ;
ENDSEC;
END-ISO-10303-21;
