ISO-10303-21;
HEADER;
FILE_DESCRIPTION (( 'STEP AP203' ),
    '1' );
FILE_NAME ('06c5.STEP',
    '2022-07-07T10:37:24',
    ( '' ),
    ( '' ),
    'SwSTEP 2.0',
    'SolidWorks 2019',
    '' );
FILE_SCHEMA (( 'CONFIG_CONTROL_DESIGN' ));
ENDSEC;

DATA;
#1 = ORIENTED_EDGE ( 'NONE', *, *, #35, .F. ) ;
#2 = EDGE_LOOP ( 'NONE', ( #257, #259 ) ) ;
#3 = APPLICATION_CONTEXT ( 'configuration controlled 3d designs of mechanical parts and assemblies' ) ;
#4 = CARTESIAN_POINT ( 'NONE',  ( 0.000000000000000000, 0.000000000000000000, 1.500000000000000000 ) ) ;
#5 = ORIENTED_EDGE ( 'NONE', *, *, #278, .T. ) ;
#6 = ORIENTED_EDGE ( 'NONE', *, *, #307, .T. ) ;
#7 = PERSON_AND_ORGANIZATION ( #108, #104 ) ;
#8 = AXIS2_PLACEMENT_3D ( 'NONE', #34, #111, #274 ) ;
#9 = PERSON_AND_ORGANIZATION ( #108, #104 ) ;
#10 = DIRECTION ( 'NONE',  ( 1.000000000000000000, 0.000000000000000000, 0.000000000000000000 ) ) ;
#11 = ADVANCED_BREP_SHAPE_REPRESENTATION ( '06c5', ( #55, #46 ), #252 ) ;
#12 = DIRECTION ( 'NONE',  ( -1.000000000000000000, 0.000000000000000000, 0.000000000000000000 ) ) ;
#13 = EDGE_CURVE ( 'NONE', #287, #126, #109, .T. ) ;
#14 = AXIS2_PLACEMENT_3D ( 'NONE', #71, #166, #77 ) ;
#15 = CIRCLE ( 'NONE', #256, 2.000000000000000000 ) ;
#16 = DIRECTION ( 'NONE',  ( -0.000000000000000000, -0.000000000000000000, -1.000000000000000000 ) ) ;
#17 = CARTESIAN_POINT ( 'NONE',  ( 0.9000000000000000222, 1.102182119232617788E-16, 1.700000000000007061 ) ) ;
#18 = CYLINDRICAL_SURFACE ( 'NONE', #64, 2.000000000000000000 ) ;
#19 = APPROVAL_PERSON_ORGANIZATION ( #270, #89, #167 ) ;
#20 = LINE ( 'NONE', #258, #54 ) ;
#21 = EDGE_CURVE ( 'NONE', #139, #191, #20, .T. ) ;
#22 = ORIENTED_EDGE ( 'NONE', *, *, #72, .F. ) ;
#23 = DIRECTION ( 'NONE',  ( 0.000000000000000000, 0.000000000000000000, 1.000000000000000000 ) ) ;
#24 = CIRCLE ( 'NONE', #103, 0.9000000000000000222 ) ;
#25 = ORIENTED_EDGE ( 'NONE', *, *, #112, .T. ) ;
#26 = PLANE ( 'NONE',  #14 ) ;
#27 = PERSON_AND_ORGANIZATION_ROLE ( 'design_owner' ) ;
#28 = VERTEX_POINT ( 'NONE', #216 ) ;
#29 = PLANE ( 'NONE',  #110 ) ;
#30 = COORDINATED_UNIVERSAL_TIME_OFFSET ( 1, 0, .AHEAD. ) ;
#31 = EDGE_CURVE ( 'NONE', #162, #191, #210, .T. ) ;
#32 = PERSON_AND_ORGANIZATION_ROLE ( 'classification_officer' ) ;
#33 = APPROVAL_PERSON_ORGANIZATION ( #7, #219, #128 ) ;
#34 = CARTESIAN_POINT ( 'NONE',  ( 0.000000000000000000, 0.000000000000000000, 101.5000000000000000 ) ) ;
#35 = EDGE_CURVE ( 'NONE', #68, #139, #295, .T. ) ;
#36 = CARTESIAN_POINT ( 'NONE',  ( 1.100000000000000089, 0.000000000000000000, 1.500000000000003553 ) ) ;
#37 = VECTOR ( 'NONE', #90, 1000.000000000000000 ) ;
#38 = FACE_OUTER_BOUND ( 'NONE', #218, .T. ) ;
#39 = CARTESIAN_POINT ( 'NONE',  ( -0.9000000000000000222, 0.000000000000000000, 101.5000000000000000 ) ) ;
#40 = CC_DESIGN_PERSON_AND_ORGANIZATION_ASSIGNMENT ( #52, #32, ( #208 ) ) ;
#41 = CARTESIAN_POINT ( 'NONE',  ( 0.000000000000000000, 0.000000000000000000, 1.700000000000007061 ) ) ;
#42 = CARTESIAN_POINT ( 'NONE',  ( 0.9000000000000000222, 1.102182119232617788E-16, 101.5000000000000000 ) ) ;
#43 = ORIENTED_EDGE ( 'NONE', *, *, #13, .F. ) ;
#44 = DIRECTION ( 'NONE',  ( 1.000000000000000000, 0.000000000000000000, 0.000000000000000000 ) ) ;
#45 = AXIS2_PLACEMENT_3D ( 'NONE', #266, #47, #306 ) ;
#46 = AXIS2_PLACEMENT_3D ( 'NONE', #82, #105, #10 ) ;
#47 = DIRECTION ( 'NONE',  ( 0.000000000000000000, 0.000000000000000000, 1.000000000000000000 ) ) ;
#48 = PERSON_AND_ORGANIZATION_ROLE ( 'creator' ) ;
#49 = CC_DESIGN_APPROVAL ( #219, ( #303 ) ) ;
#50 = PRODUCT_DEFINITION ( 'NEZNÁMÝ', '', #303, #175 ) ;
#51 = DIRECTION ( 'NONE',  ( 1.000000000000000000, 0.000000000000000000, 0.000000000000000000 ) ) ;
#52 = PERSON_AND_ORGANIZATION ( #108, #104 ) ;
#53 = APPROVAL_STATUS ( 'not_yet_approved' ) ;
#54 = VECTOR ( 'NONE', #101, 1000.000000000000000 ) ;
#55 = MANIFOLD_SOLID_BREP ( 'Zaoblit1', #238 ) ;
#56 = EDGE_CURVE ( 'NONE', #237, #28, #24, .T. ) ;
#57 = DIRECTION ( 'NONE',  ( -0.000000000000000000, -0.000000000000000000, -1.000000000000000000 ) ) ;
#58 = LINE ( 'NONE', #107, #37 ) ;
#59 = CYLINDRICAL_SURFACE ( 'NONE', #155, 2.000000000000000000 ) ;
#60 = AXIS2_PLACEMENT_3D ( 'NONE', #158, #93, #44 ) ;
#61 = LOCAL_TIME ( 12, 37, 24.00000000000000000, #171 ) ;
#62 = DIRECTION ( 'NONE',  ( 1.000000000000000000, 0.000000000000000000, 0.000000000000000000 ) ) ;
#63 = EDGE_CURVE ( 'NONE', #191, #162, #144, .T. ) ;
#64 = AXIS2_PLACEMENT_3D ( 'NONE', #88, #201, #113 ) ;
#65 = ORIENTED_EDGE ( 'NONE', *, *, #279, .F. ) ;
#66 = DIRECTION ( 'NONE',  ( -0.000000000000000000, -0.000000000000000000, -1.000000000000000000 ) ) ;
#67 = LOCAL_TIME ( 12, 37, 24.00000000000000000, #198 ) ;
#68 = VERTEX_POINT ( 'NONE', #143 ) ;
#69 = VERTEX_POINT ( 'NONE', #138 ) ;
#70 = EDGE_LOOP ( 'NONE', ( #98, #280 ) ) ;
#71 = CARTESIAN_POINT ( 'NONE',  ( 0.000000000000000000, 0.000000000000000000, 1.500000000000000000 ) ) ;
#72 = EDGE_CURVE ( 'NONE', #159, #69, #137, .T. ) ;
#73 = DATE_TIME_ROLE ( 'creation_date' ) ;
#74 = ORIENTED_EDGE ( 'NONE', *, *, #263, .F. ) ;
#75 = AXIS2_PLACEMENT_3D ( 'NONE', #251, #133, #152 ) ;
#76 = CARTESIAN_POINT ( 'NONE',  ( 0.000000000000000000, 0.000000000000000000, 101.5000000000000000 ) ) ;
#77 = DIRECTION ( 'NONE',  ( 1.000000000000000000, 0.000000000000000000, -0.000000000000000000 ) ) ;
#78 = PERSON_AND_ORGANIZATION ( #108, #104 ) ;
#79 = LOCAL_TIME ( 12, 37, 24.00000000000000000, #30 ) ;
#80 = CALENDAR_DATE ( 2022, 7, 7 ) ;
#81 = ADVANCED_FACE ( 'NONE', ( #188, #193 ), #26, .T. ) ;
#82 = CARTESIAN_POINT ( 'NONE',  ( 0.000000000000000000, 0.000000000000000000, 0.000000000000000000 ) ) ;
#83 = DIRECTION ( 'NONE',  ( 1.000000000000000000, 0.000000000000000000, -0.000000000000000000 ) ) ;
#84 = TOROIDAL_SURFACE ( 'NONE', #183, 1.100000000000000089, 0.2000000000000000111 ) ;
#85 = CARTESIAN_POINT ( 'NONE',  ( -2.000000000000000000, 0.000000000000000000, 1.500000000000000000 ) ) ;
#86 = PRODUCT ( '06c5', '06c5', '', ( #150 ) ) ;
#87 = FACE_OUTER_BOUND ( 'NONE', #233, .T. ) ;
#88 = CARTESIAN_POINT ( 'NONE',  ( 0.000000000000000000, 0.000000000000000000, 1.500000000000000000 ) ) ;
#89 = APPROVAL ( #125, 'NEURÈENÝ' ) ;
#90 = DIRECTION ( 'NONE',  ( -0.000000000000000000, -0.000000000000000000, -1.000000000000000000 ) ) ;
#91 = VECTOR ( 'NONE', #179, 1000.000000000000000 ) ;
#92 = ORIENTED_EDGE ( 'NONE', *, *, #231, .T. ) ;
#93 = DIRECTION ( 'NONE',  ( 0.000000000000000000, 0.000000000000000000, 1.000000000000000000 ) ) ;
#94 = AXIS2_PLACEMENT_3D ( 'NONE', #196, #236, #262 ) ;
#95 = EDGE_LOOP ( 'NONE', ( #65, #127, #170, #74 ) ) ;
#96 = DATE_AND_TIME ( #80, #124 ) ;
#97 = ORIENTED_EDGE ( 'NONE', *, *, #31, .T. ) ;
#98 = ORIENTED_EDGE ( 'NONE', *, *, #31, .F. ) ;
#99 = DATE_TIME_ROLE ( 'classification_date' ) ;
#100 = EDGE_LOOP ( 'NONE', ( #285, #6 ) ) ;
#101 = DIRECTION ( 'NONE',  ( -0.000000000000000000, -0.000000000000000000, -1.000000000000000000 ) ) ;
#102 = APPROVAL_DATE_TIME ( #223, #219 ) ;
#103 = AXIS2_PLACEMENT_3D ( 'NONE', #41, #140, #117 ) ;
#104 = ORGANIZATION ( 'NEURÈENÝ', 'NEURÈENÝ', '' ) ;
#105 = DIRECTION ( 'NONE',  ( 0.000000000000000000, 0.000000000000000000, 1.000000000000000000 ) ) ;
#106 = APPROVAL_STATUS ( 'not_yet_approved' ) ;
#107 = CARTESIAN_POINT ( 'NONE',  ( 0.9000000000000000222, 1.102182119232617788E-16, 101.5000000000000000 ) ) ;
#108 = PERSON ( 'NEURÈENÝ', 'NEURÈENÝ', 'NEURÈENÝ', ('NEURÈENÝ'), ('NEURÈENÝ'), ('NEURÈENÝ') ) ;
#109 = CIRCLE ( 'NONE', #114, 0.9000000000000000222 ) ;
#110 = AXIS2_PLACEMENT_3D ( 'NONE', #161, #220, #260 ) ;
#111 = DIRECTION ( 'NONE',  ( -0.000000000000000000, -0.000000000000000000, -1.000000000000000000 ) ) ;
#112 = EDGE_CURVE ( 'NONE', #28, #237, #182, .T. ) ;
#113 = DIRECTION ( 'NONE',  ( -1.000000000000000000, 0.000000000000000000, 0.000000000000000000 ) ) ;
#114 = AXIS2_PLACEMENT_3D ( 'NONE', #283, #23, #51 ) ;
#115 = EDGE_CURVE ( 'NONE', #237, #159, #180, .T. ) ;
#116 = ORIENTED_EDGE ( 'NONE', *, *, #112, .F. ) ;
#117 = DIRECTION ( 'NONE',  ( 1.000000000000000000, 0.000000000000000000, 0.000000000000000000 ) ) ;
#118 = DIRECTION ( 'NONE',  ( 1.000000000000000000, 0.000000000000000000, 0.000000000000000000 ) ) ;
#119 = CIRCLE ( 'NONE', #211, 1.100000000000000089 ) ;
#120 = PERSON_AND_ORGANIZATION_ROLE ( 'design_supplier' ) ;
#121 = ORIENTED_EDGE ( 'NONE', *, *, #13, .T. ) ;
#122 = ADVANCED_FACE ( 'NONE', ( #149 ), #29, .F. ) ;
#123 = EDGE_LOOP ( 'NONE', ( #261, #1, #189, #97 ) ) ;
#124 = LOCAL_TIME ( 12, 37, 24.00000000000000000, #292 ) ;
#125 = APPROVAL_STATUS ( 'not_yet_approved' ) ;
#126 = VERTEX_POINT ( 'NONE', #42 ) ;
#127 = ORIENTED_EDGE ( 'NONE', *, *, #21, .T. ) ;
#128 = APPROVAL_ROLE ( '' ) ;
#129 =( NAMED_UNIT ( * ) PLANE_ANGLE_UNIT ( ) SI_UNIT ( $, .RADIAN. ) );
#130 = PERSON_AND_ORGANIZATION ( #108, #104 ) ;
#131 = CARTESIAN_POINT ( 'NONE',  ( -2.000000000000000000, 0.000000000000000000, 0.000000000000000000 ) ) ;
#132 = DIRECTION ( 'NONE',  ( 1.224646799147353207E-16, 1.000000000000000000, -0.000000000000000000 ) ) ;
#133 = DIRECTION ( 'NONE',  ( 0.000000000000000000, 0.000000000000000000, 1.000000000000000000 ) ) ;
#134 = DIRECTION ( 'NONE',  ( 0.000000000000000000, 0.000000000000000000, 1.000000000000000000 ) ) ;
#135 = ADVANCED_FACE ( 'NONE', ( #38 ), #177, .T. ) ;
#136 = ADVANCED_FACE ( 'NONE', ( #206 ), #59, .T. ) ;
#137 = CIRCLE ( 'NONE', #174, 1.100000000000000089 ) ;
#138 = CARTESIAN_POINT ( 'NONE',  ( -1.100000000000000089, 1.347111479062088503E-16, 1.500000000000003553 ) ) ;
#139 = VERTEX_POINT ( 'NONE', #249 ) ;
#140 = DIRECTION ( 'NONE',  ( 0.000000000000000000, 0.000000000000000000, 1.000000000000000000 ) ) ;
#141 = ADVANCED_FACE ( 'NONE', ( #87 ), #84, .F. ) ;
#142 = ORIENTED_EDGE ( 'NONE', *, *, #56, .T. ) ;
#143 = CARTESIAN_POINT ( 'NONE',  ( -2.000000000000000000, 0.000000000000000000, 1.500000000000000000 ) ) ;
#144 = CIRCLE ( 'NONE', #94, 2.000000000000000000 ) ;
#145 = CIRCLE ( 'NONE', #277, 0.2000000000000000944 ) ;
#146 = PERSON_AND_ORGANIZATION_ROLE ( 'creator' ) ;
#147 = CARTESIAN_POINT ( 'NONE',  ( 1.100000000000000089, 0.000000000000000000, 1.700000000000007061 ) ) ;
#148 = SECURITY_CLASSIFICATION_LEVEL ( 'unclassified' ) ;
#149 = FACE_OUTER_BOUND ( 'NONE', #70, .T. ) ;
#150 = MECHANICAL_CONTEXT ( 'NONE', #187, 'mechanical' ) ;
#151 = DIRECTION ( 'NONE',  ( -1.000000000000000000, 1.224646799147353207E-16, 0.000000000000000000 ) ) ;
#152 = DIRECTION ( 'NONE',  ( 1.000000000000000000, 0.000000000000000000, 0.000000000000000000 ) ) ;
#153 = CC_DESIGN_PERSON_AND_ORGANIZATION_ASSIGNMENT ( #9, #120, ( #303 ) ) ;
#154 = CARTESIAN_POINT ( 'NONE',  ( 0.000000000000000000, 0.000000000000000000, 101.5000000000000000 ) ) ;
#155 = AXIS2_PLACEMENT_3D ( 'NONE', #300, #16, #12 ) ;
#156 = CARTESIAN_POINT ( 'NONE',  ( 0.000000000000000000, 0.000000000000000000, 101.5000000000000000 ) ) ;
#157 = VECTOR ( 'NONE', #57, 1000.000000000000000 ) ;
#158 = CARTESIAN_POINT ( 'NONE',  ( 0.000000000000000000, 0.000000000000000000, 1.500000000000000000 ) ) ;
#159 = VERTEX_POINT ( 'NONE', #36 ) ;
#160 = CC_DESIGN_PERSON_AND_ORGANIZATION_ASSIGNMENT ( #130, #27, ( #86 ) ) ;
#161 = CARTESIAN_POINT ( 'NONE',  ( 0.000000000000000000, 0.000000000000000000, 0.000000000000000000 ) ) ;
#162 = VERTEX_POINT ( 'NONE', #131 ) ;
#163 = CARTESIAN_POINT ( 'NONE',  ( 0.000000000000000000, 0.000000000000000000, 0.000000000000000000 ) ) ;
#164 = PERSON_AND_ORGANIZATION ( #108, #104 ) ;
#165 = ORIENTED_EDGE ( 'NONE', *, *, #307, .F. ) ;
#166 = DIRECTION ( 'NONE',  ( 0.000000000000000000, 0.000000000000000000, 1.000000000000000000 ) ) ;
#167 = APPROVAL_ROLE ( '' ) ;
#168 = ORIENTED_EDGE ( 'NONE', *, *, #115, .T. ) ;
#169 = DIRECTION ( 'NONE',  ( -1.000000000000000000, 0.000000000000000000, 0.000000000000000000 ) ) ;
#170 = ORIENTED_EDGE ( 'NONE', *, *, #63, .T. ) ;
#171 = COORDINATED_UNIVERSAL_TIME_OFFSET ( 1, 0, .AHEAD. ) ;
#172 = CALENDAR_DATE ( 2022, 7, 7 ) ;
#173 = DIRECTION ( 'NONE',  ( 1.000000000000000000, 0.000000000000000000, 0.000000000000000000 ) ) ;
#174 = AXIS2_PLACEMENT_3D ( 'NONE', #4, #66, #239 ) ;
#175 = DESIGN_CONTEXT ( 'detailed design', #3, 'design' ) ;
#176 = CC_DESIGN_APPROVAL ( #298, ( #208 ) ) ;
#177 = CYLINDRICAL_SURFACE ( 'NONE', #8, 0.9000000000000000222 ) ;
#178 = PLANE ( 'NONE',  #197 ) ;
#179 = DIRECTION ( 'NONE',  ( -0.000000000000000000, -0.000000000000000000, -1.000000000000000000 ) ) ;
#180 = CIRCLE ( 'NONE', #304, 0.2000000000000000944 ) ;
#181 = CARTESIAN_POINT ( 'NONE',  ( 0.000000000000000000, 0.000000000000000000, 1.700000000000007061 ) ) ;
#182 = CIRCLE ( 'NONE', #45, 0.9000000000000000222 ) ;
#183 = AXIS2_PLACEMENT_3D ( 'NONE', #181, #297, #173 ) ;
#184 = APPROVAL_PERSON_ORGANIZATION ( #78, #298, #199 ) ;
#185 = ORIENTED_EDGE ( 'NONE', *, *, #255, .F. ) ;
#186 = ADVANCED_FACE ( 'NONE', ( #205 ), #18, .T. ) ;
#187 = APPLICATION_CONTEXT ( 'configuration controlled 3d designs of mechanical parts and assemblies' ) ;
#188 = FACE_BOUND ( 'NONE', #100, .T. ) ;
#189 = ORIENTED_EDGE ( 'NONE', *, *, #263, .T. ) ;
#190 = UNCERTAINTY_MEASURE_WITH_UNIT (LENGTH_MEASURE( 1.000000000000000082E-05 ), #268, 'distance_accuracy_value', 'NONE');
#191 = VERTEX_POINT ( 'NONE', #254 ) ;
#192 = EDGE_LOOP ( 'NONE', ( #234, #92, #142, #185 ) ) ;
#193 = FACE_OUTER_BOUND ( 'NONE', #2, .T. ) ;
#194 = APPLICATION_PROTOCOL_DEFINITION ( 'international standard', 'config_control_design', 1994, #3 ) ;
#195 = ORIENTED_EDGE ( 'NONE', *, *, #278, .F. ) ;
#196 = CARTESIAN_POINT ( 'NONE',  ( 0.000000000000000000, 0.000000000000000000, 0.000000000000000000 ) ) ;
#197 = AXIS2_PLACEMENT_3D ( 'NONE', #154, #228, #83 ) ;
#198 = COORDINATED_UNIVERSAL_TIME_OFFSET ( 1, 0, .AHEAD. ) ;
#199 = APPROVAL_ROLE ( '' ) ;
#200 = DIRECTION ( 'NONE',  ( -0.000000000000000000, -0.000000000000000000, -1.000000000000000000 ) ) ;
#201 = DIRECTION ( 'NONE',  ( -0.000000000000000000, -0.000000000000000000, -1.000000000000000000 ) ) ;
#202 = CC_DESIGN_PERSON_AND_ORGANIZATION_ASSIGNMENT ( #164, #146, ( #303 ) ) ;
#203 = LINE ( 'NONE', #85, #91 ) ;
#204 = CC_DESIGN_APPROVAL ( #89, ( #50 ) ) ;
#205 = FACE_OUTER_BOUND ( 'NONE', #123, .T. ) ;
#206 = FACE_OUTER_BOUND ( 'NONE', #95, .T. ) ;
#207 = FACE_OUTER_BOUND ( 'NONE', #192, .T. ) ;
#208 = SECURITY_CLASSIFICATION ( '', '', #148 ) ;
#209 = CC_DESIGN_DATE_AND_TIME_ASSIGNMENT ( #246, #73, ( #50 ) ) ;
#210 = CIRCLE ( 'NONE', #230, 2.000000000000000000 ) ;
#211 = AXIS2_PLACEMENT_3D ( 'NONE', #222, #271, #291 ) ;
#212 = ORIENTED_EDGE ( 'NONE', *, *, #56, .F. ) ;
#213 = ORIENTED_EDGE ( 'NONE', *, *, #231, .F. ) ;
#214 = APPROVAL_DATE_TIME ( #284, #89 ) ;
#215 = ORIENTED_EDGE ( 'NONE', *, *, #282, .T. ) ;
#216 = CARTESIAN_POINT ( 'NONE',  ( -0.9000000000000000222, 0.000000000000000000, 1.700000000000007061 ) ) ;
#217 = CALENDAR_DATE ( 2022, 7, 7 ) ;
#218 = EDGE_LOOP ( 'NONE', ( #213, #43, #241, #25 ) ) ;
#219 = APPROVAL ( #53, 'NEURÈENÝ' ) ;
#220 = DIRECTION ( 'NONE',  ( 0.000000000000000000, 0.000000000000000000, 1.000000000000000000 ) ) ;
#221 = DATE_AND_TIME ( #240, #67 ) ;
#222 = CARTESIAN_POINT ( 'NONE',  ( 0.000000000000000000, 0.000000000000000000, 1.500000000000000000 ) ) ;
#223 = DATE_AND_TIME ( #172, #290 ) ;
#224 = ADVANCED_FACE ( 'NONE', ( #294 ), #178, .T. ) ;
#225 = FACE_OUTER_BOUND ( 'NONE', #288, .T. ) ;
#226 = DIRECTION ( 'NONE',  ( 1.000000000000000000, 0.000000000000000000, 0.000000000000000000 ) ) ;
#227 = AXIS2_PLACEMENT_3D ( 'NONE', #76, #200, #169 ) ;
#228 = DIRECTION ( 'NONE',  ( 0.000000000000000000, 0.000000000000000000, 1.000000000000000000 ) ) ;
#229 = CARTESIAN_POINT ( 'NONE',  ( -0.9000000000000000222, 0.000000000000000000, 101.5000000000000000 ) ) ;
#230 = AXIS2_PLACEMENT_3D ( 'NONE', #163, #286, #118 ) ;
#231 = EDGE_CURVE ( 'NONE', #126, #237, #58, .T. ) ;
#232 = TOROIDAL_SURFACE ( 'NONE', #75, 1.100000000000000089, 0.2000000000000000111 ) ;
#233 = EDGE_LOOP ( 'NONE', ( #116, #5, #22, #235 ) ) ;
#234 = ORIENTED_EDGE ( 'NONE', *, *, #282, .F. ) ;
#235 = ORIENTED_EDGE ( 'NONE', *, *, #115, .F. ) ;
#236 = DIRECTION ( 'NONE',  ( 0.000000000000000000, 0.000000000000000000, 1.000000000000000000 ) ) ;
#237 = VERTEX_POINT ( 'NONE', #17 ) ;
#238 = CLOSED_SHELL ( 'NONE', ( #141, #305, #136, #186, #81, #122, #135, #224, #247 ) ) ;
#239 = DIRECTION ( 'NONE',  ( 1.000000000000000000, 0.000000000000000000, 0.000000000000000000 ) ) ;
#240 = CALENDAR_DATE ( 2022, 7, 7 ) ;
#241 = ORIENTED_EDGE ( 'NONE', *, *, #255, .T. ) ;
#242 = PRODUCT_RELATED_PRODUCT_CATEGORY ( 'detail', '', ( #86 ) ) ;
#243 = DIRECTION ( 'NONE',  ( 0.000000000000000000, 0.000000000000000000, -1.000000000000000000 ) ) ;
#244 = COORDINATED_UNIVERSAL_TIME_OFFSET ( 1, 0, .AHEAD. ) ;
#245 =( NAMED_UNIT ( * ) SI_UNIT ( $, .STERADIAN. ) SOLID_ANGLE_UNIT ( ) );
#246 = DATE_AND_TIME ( #217, #79 ) ;
#247 = ADVANCED_FACE ( 'NONE', ( #225 ), #232, .F. ) ;
#248 = CC_DESIGN_SECURITY_CLASSIFICATION ( #208, ( #303 ) ) ;
#249 = CARTESIAN_POINT ( 'NONE',  ( 2.000000000000000000, 2.449293598294706414E-16, 1.500000000000000000 ) ) ;
#250 = CARTESIAN_POINT ( 'NONE',  ( -1.100000000000000089, 1.347111479062088503E-16, 1.700000000000007061 ) ) ;
#251 = CARTESIAN_POINT ( 'NONE',  ( 0.000000000000000000, 0.000000000000000000, 1.700000000000007061 ) ) ;
#252 =( GEOMETRIC_REPRESENTATION_CONTEXT ( 3 ) GLOBAL_UNCERTAINTY_ASSIGNED_CONTEXT ( ( #190 ) ) GLOBAL_UNIT_ASSIGNED_CONTEXT ( ( #268, #129, #245 ) ) REPRESENTATION_CONTEXT ( 'NONE', 'WORKASPACE' ) );
#253 = CC_DESIGN_PERSON_AND_ORGANIZATION_ASSIGNMENT ( #289, #48, ( #50 ) ) ;
#254 = CARTESIAN_POINT ( 'NONE',  ( 2.000000000000000000, 2.449293598294706414E-16, 0.000000000000000000 ) ) ;
#255 = EDGE_CURVE ( 'NONE', #287, #28, #273, .T. ) ;
#256 = AXIS2_PLACEMENT_3D ( 'NONE', #275, #276, #62 ) ;
#257 = ORIENTED_EDGE ( 'NONE', *, *, #35, .T. ) ;
#258 = CARTESIAN_POINT ( 'NONE',  ( 2.000000000000000000, 2.449293598294706414E-16, 1.500000000000000000 ) ) ;
#259 = ORIENTED_EDGE ( 'NONE', *, *, #279, .T. ) ;
#260 = DIRECTION ( 'NONE',  ( 1.000000000000000000, 0.000000000000000000, -0.000000000000000000 ) ) ;
#261 = ORIENTED_EDGE ( 'NONE', *, *, #21, .F. ) ;
#262 = DIRECTION ( 'NONE',  ( 1.000000000000000000, 0.000000000000000000, 0.000000000000000000 ) ) ;
#263 = EDGE_CURVE ( 'NONE', #68, #162, #203, .T. ) ;
#264 = APPROVAL_DATE_TIME ( #96, #298 ) ;
#265 = CIRCLE ( 'NONE', #296, 0.9000000000000000222 ) ;
#266 = CARTESIAN_POINT ( 'NONE',  ( 0.000000000000000000, 0.000000000000000000, 1.700000000000007061 ) ) ;
#267 = CALENDAR_DATE ( 2022, 7, 7 ) ;
#268 =( LENGTH_UNIT ( ) NAMED_UNIT ( * ) SI_UNIT ( .MILLI., .METRE. ) );
#269 = DIRECTION ( 'NONE',  ( 0.000000000000000000, -1.000000000000000000, 0.000000000000000000 ) ) ;
#270 = PERSON_AND_ORGANIZATION ( #108, #104 ) ;
#271 = DIRECTION ( 'NONE',  ( -0.000000000000000000, -0.000000000000000000, -1.000000000000000000 ) ) ;
#272 = SHAPE_DEFINITION_REPRESENTATION ( #299, #11 ) ;
#273 = LINE ( 'NONE', #39, #157 ) ;
#274 = DIRECTION ( 'NONE',  ( -1.000000000000000000, 0.000000000000000000, 0.000000000000000000 ) ) ;
#275 = CARTESIAN_POINT ( 'NONE',  ( 0.000000000000000000, 0.000000000000000000, 1.500000000000000000 ) ) ;
#276 = DIRECTION ( 'NONE',  ( 0.000000000000000000, 0.000000000000000000, 1.000000000000000000 ) ) ;
#277 = AXIS2_PLACEMENT_3D ( 'NONE', #250, #132, #151 ) ;
#278 = EDGE_CURVE ( 'NONE', #28, #69, #145, .T. ) ;
#279 = EDGE_CURVE ( 'NONE', #139, #68, #15, .T. ) ;
#280 = ORIENTED_EDGE ( 'NONE', *, *, #63, .F. ) ;
#281 = EDGE_LOOP ( 'NONE', ( #121, #215 ) ) ;
#282 = EDGE_CURVE ( 'NONE', #126, #287, #265, .T. ) ;
#283 = CARTESIAN_POINT ( 'NONE',  ( 0.000000000000000000, 0.000000000000000000, 101.5000000000000000 ) ) ;
#284 = DATE_AND_TIME ( #267, #61 ) ;
#285 = ORIENTED_EDGE ( 'NONE', *, *, #72, .T. ) ;
#286 = DIRECTION ( 'NONE',  ( 0.000000000000000000, 0.000000000000000000, 1.000000000000000000 ) ) ;
#287 = VERTEX_POINT ( 'NONE', #229 ) ;
#288 = EDGE_LOOP ( 'NONE', ( #195, #212, #168, #165 ) ) ;
#289 = PERSON_AND_ORGANIZATION ( #108, #104 ) ;
#290 = LOCAL_TIME ( 12, 37, 24.00000000000000000, #244 ) ;
#291 = DIRECTION ( 'NONE',  ( 1.000000000000000000, 0.000000000000000000, 0.000000000000000000 ) ) ;
#292 = COORDINATED_UNIVERSAL_TIME_OFFSET ( 1, 0, .AHEAD. ) ;
#293 = APPLICATION_PROTOCOL_DEFINITION ( 'international standard', 'config_control_design', 1994, #187 ) ;
#294 = FACE_OUTER_BOUND ( 'NONE', #281, .T. ) ;
#295 = CIRCLE ( 'NONE', #60, 2.000000000000000000 ) ;
#296 = AXIS2_PLACEMENT_3D ( 'NONE', #156, #134, #226 ) ;
#297 = DIRECTION ( 'NONE',  ( 0.000000000000000000, 0.000000000000000000, 1.000000000000000000 ) ) ;
#298 = APPROVAL ( #106, 'NEURÈENÝ' ) ;
#299 = PRODUCT_DEFINITION_SHAPE ( 'NONE', 'NONE',  #50 ) ;
#300 = CARTESIAN_POINT ( 'NONE',  ( 0.000000000000000000, 0.000000000000000000, 1.500000000000000000 ) ) ;
#301 = CYLINDRICAL_SURFACE ( 'NONE', #227, 0.9000000000000000222 ) ;
#302 = CC_DESIGN_DATE_AND_TIME_ASSIGNMENT ( #221, #99, ( #208 ) ) ;
#303 = PRODUCT_DEFINITION_FORMATION_WITH_SPECIFIED_SOURCE ( 'LIBOVOLNÝ', '', #86, .NOT_KNOWN. ) ;
#304 = AXIS2_PLACEMENT_3D ( 'NONE', #147, #269, #243 ) ;
#305 = ADVANCED_FACE ( 'NONE', ( #207 ), #301, .T. ) ;
#306 = DIRECTION ( 'NONE',  ( 1.000000000000000000, 0.000000000000000000, 0.000000000000000000 ) ) ;
#307 = EDGE_CURVE ( 'NONE', #69, #159, #119, .T. ) ;
ENDSEC;
END-ISO-10303-21;
