ISO-10303-21;
HEADER;
FILE_DESCRIPTION (( 'STEP AP203' ),
    '1' );
FILE_NAME ('a4e2.STEP',
    '2023-02-12T12:37:01',
    ( '' ),
    ( '' ),
    'SwSTEP 2.0',
    'SolidWorks 2019',
    '' );
FILE_SCHEMA (( 'CONFIG_CONTROL_DESIGN' ));
ENDSEC;

DATA;
#1 = VERTEX_POINT ( 'NONE', #237 ) ;
#2 = LOCAL_TIME ( 13, 37, 1.000000000000000000, #46 ) ;
#3 = ADVANCED_FACE ( 'NONE', ( #112 ), #111, .T. ) ;
#4 = PRODUCT ( 'a4e2', 'a4e2', '', ( #164 ) ) ;
#5 = CC_DESIGN_PERSON_AND_ORGANIZATION_ASSIGNMENT ( #248, #211, ( #56 ) ) ;
#6 = CARTESIAN_POINT ( 'NONE',  ( 4.000000000000000000, 4.898587196589412829E-16, 0.000000000000000000 ) ) ;
#7 = AXIS2_PLACEMENT_3D ( 'NONE', #160, #181, #76 ) ;
#8 = CARTESIAN_POINT ( 'NONE',  ( 4.000000000000000000, 4.898587196589412829E-16, 3.000000000000000000 ) ) ;
#9 = COORDINATED_UNIVERSAL_TIME_OFFSET ( 1, 0, .AHEAD. ) ;
#10 = ORIENTED_EDGE ( 'NONE', *, *, #114, .T. ) ;
#11 = PRODUCT_DEFINITION_SHAPE ( 'NONE', 'NONE',  #158 ) ;
#12 = DIRECTION ( 'NONE',  ( 0.000000000000000000, 0.000000000000000000, 1.000000000000000000 ) ) ;
#13 = EDGE_LOOP ( 'NONE', ( #215, #155 ) ) ;
#14 = PERSON_AND_ORGANIZATION ( #93, #17 ) ;
#15 = ORIENTED_EDGE ( 'NONE', *, *, #91, .T. ) ;
#16 = EDGE_CURVE ( 'NONE', #72, #253, #28, .T. ) ;
#17 = ORGANIZATION ( 'NEURÈENÝ', 'NEURÈENÝ', '' ) ;
#18 = VERTEX_POINT ( 'NONE', #186 ) ;
#19 = DIRECTION ( 'NONE',  ( 0.000000000000000000, 0.000000000000000000, 1.000000000000000000 ) ) ;
#20 = ADVANCED_FACE ( 'NONE', ( #74 ), #230, .T. ) ;
#21 = AXIS2_PLACEMENT_3D ( 'NONE', #55, #137, #217 ) ;
#22 = CARTESIAN_POINT ( 'NONE',  ( 0.000000000000000000, 0.000000000000000000, 200.0000000000000000 ) ) ;
#23 = CIRCLE ( 'NONE', #115, 4.000000000000000000 ) ;
#24 = PERSON_AND_ORGANIZATION ( #93, #17 ) ;
#25 = AXIS2_PLACEMENT_3D ( 'NONE', #209, #12, #73 ) ;
#26 = CYLINDRICAL_SURFACE ( 'NONE', #67, 2.100000000000000089 ) ;
#27 = DIRECTION ( 'NONE',  ( 0.000000000000000000, 0.000000000000000000, 1.000000000000000000 ) ) ;
#28 = CIRCLE ( 'NONE', #126, 2.100000000000000089 ) ;
#29 = DIRECTION ( 'NONE',  ( -1.000000000000000000, 0.000000000000000000, 0.000000000000000000 ) ) ;
#30 = CC_DESIGN_APPROVAL ( #234, ( #56 ) ) ;
#31 = CIRCLE ( 'NONE', #228, 4.000000000000000000 ) ;
#32 = PERSON_AND_ORGANIZATION ( #93, #17 ) ;
#33 = FACE_OUTER_BOUND ( 'NONE', #178, .T. ) ;
#34 = ORIENTED_EDGE ( 'NONE', *, *, #124, .T. ) ;
#35 = ORIENTED_EDGE ( 'NONE', *, *, #16, .T. ) ;
#36 = ORIENTED_EDGE ( 'NONE', *, *, #161, .T. ) ;
#37 = ORIENTED_EDGE ( 'NONE', *, *, #122, .F. ) ;
#38 = CIRCLE ( 'NONE', #244, 2.100000000000000089 ) ;
#39 = AXIS2_PLACEMENT_3D ( 'NONE', #157, #193, #207 ) ;
#40 = PERSON_AND_ORGANIZATION ( #93, #17 ) ;
#41 = EDGE_LOOP ( 'NONE', ( #195, #37, #86, #210 ) ) ;
#42 = DIRECTION ( 'NONE',  ( 1.000000000000000000, 0.000000000000000000, 0.000000000000000000 ) ) ;
#43 = CARTESIAN_POINT ( 'NONE',  ( 0.000000000000000000, 0.000000000000000000, 3.000000000000000000 ) ) ;
#44 = DATE_AND_TIME ( #221, #143 ) ;
#45 = FACE_OUTER_BOUND ( 'NONE', #172, .T. ) ;
#46 = COORDINATED_UNIVERSAL_TIME_OFFSET ( 1, 0, .AHEAD. ) ;
#47 = DIRECTION ( 'NONE',  ( -0.000000000000000000, -0.000000000000000000, -1.000000000000000000 ) ) ;
#48 = DATE_AND_TIME ( #240, #166 ) ;
#49 = CIRCLE ( 'NONE', #79, 2.100000000000000089 ) ;
#50 = APPROVAL_ROLE ( '' ) ;
#51 = CYLINDRICAL_SURFACE ( 'NONE', #241, 4.000000000000000000 ) ;
#52 = VERTEX_POINT ( 'NONE', #6 ) ;
#53 = DIRECTION ( 'NONE',  ( 1.000000000000000000, 0.000000000000000000, -0.000000000000000000 ) ) ;
#54 = VECTOR ( 'NONE', #85, 1000.000000000000000 ) ;
#55 = CARTESIAN_POINT ( 'NONE',  ( 0.000000000000000000, 0.000000000000000000, 200.0000000000000000 ) ) ;
#56 = PRODUCT_DEFINITION_FORMATION_WITH_SPECIFIED_SOURCE ( 'LIBOVOLNÝ', '', #4, .NOT_KNOWN. ) ;
#57 = EDGE_LOOP ( 'NONE', ( #180, #123, #105, #35 ) ) ;
#58 = APPLICATION_CONTEXT ( 'configuration controlled 3d designs of mechanical parts and assemblies' ) ;
#59 = EDGE_CURVE ( 'NONE', #253, #72, #125, .T. ) ;
#60 = CARTESIAN_POINT ( 'NONE',  ( 0.000000000000000000, 0.000000000000000000, 0.000000000000000000 ) ) ;
#61 = SECURITY_CLASSIFICATION ( '', '', #254 ) ;
#62 = CARTESIAN_POINT ( 'NONE',  ( -2.100000000000000089, 0.000000000000000000, 3.000000000000000000 ) ) ;
#63 = AXIS2_PLACEMENT_3D ( 'NONE', #43, #117, #149 ) ;
#64 = ADVANCED_FACE ( 'NONE', ( #81 ), #26, .T. ) ;
#65 = LOCAL_TIME ( 13, 37, 1.000000000000000000, #9 ) ;
#66 = PERSON_AND_ORGANIZATION ( #93, #17 ) ;
#67 = AXIS2_PLACEMENT_3D ( 'NONE', #78, #206, #29 ) ;
#68 = CALENDAR_DATE ( 2023, 12, 2 ) ;
#69 = DIRECTION ( 'NONE',  ( 0.000000000000000000, 0.000000000000000000, 1.000000000000000000 ) ) ;
#70 = EDGE_LOOP ( 'NONE', ( #213, #10, #216, #140 ) ) ;
#71 = FACE_BOUND ( 'NONE', #13, .T. ) ;
#72 = VERTEX_POINT ( 'NONE', #62 ) ;
#73 = DIRECTION ( 'NONE',  ( 1.000000000000000000, 0.000000000000000000, 0.000000000000000000 ) ) ;
#74 = FACE_OUTER_BOUND ( 'NONE', #57, .T. ) ;
#75 = ADVANCED_FACE ( 'NONE', ( #45 ), #165, .T. ) ;
#76 = DIRECTION ( 'NONE',  ( 1.000000000000000000, 0.000000000000000000, 0.000000000000000000 ) ) ;
#77 = APPROVAL_STATUS ( 'not_yet_approved' ) ;
#78 = CARTESIAN_POINT ( 'NONE',  ( 0.000000000000000000, 0.000000000000000000, 200.0000000000000000 ) ) ;
#79 = AXIS2_PLACEMENT_3D ( 'NONE', #116, #98, #42 ) ;
#80 = EDGE_CURVE ( 'NONE', #1, #18, #49, .T. ) ;
#81 = FACE_OUTER_BOUND ( 'NONE', #70, .T. ) ;
#82 = PERSON_AND_ORGANIZATION ( #93, #17 ) ;
#83 = LINE ( 'NONE', #89, #212 ) ;
#84 = DATE_AND_TIME ( #68, #2 ) ;
#85 = DIRECTION ( 'NONE',  ( -0.000000000000000000, -0.000000000000000000, -1.000000000000000000 ) ) ;
#86 = ORIENTED_EDGE ( 'NONE', *, *, #169, .T. ) ;
#87 = LINE ( 'NONE', #245, #127 ) ;
#88 = APPROVAL_STATUS ( 'not_yet_approved' ) ;
#89 = CARTESIAN_POINT ( 'NONE',  ( 4.000000000000000000, 4.898587196589412829E-16, 3.000000000000000000 ) ) ;
#90 = CALENDAR_DATE ( 2023, 12, 2 ) ;
#91 = EDGE_CURVE ( 'NONE', #18, #1, #38, .T. ) ;
#92 = ORIENTED_EDGE ( 'NONE', *, *, #124, .F. ) ;
#93 = PERSON ( 'NEURÈENÝ', 'NEURÈENÝ', 'NEURÈENÝ', ('NEURÈENÝ'), ('NEURÈENÝ'), ('NEURÈENÝ') ) ;
#94 = LINE ( 'NONE', #218, #179 ) ;
#95 = DIRECTION ( 'NONE',  ( 1.000000000000000000, 0.000000000000000000, 0.000000000000000000 ) ) ;
#96 = CLOSED_SHELL ( 'NONE', ( #64, #75, #131, #222, #184, #20, #3 ) ) ;
#97 = DIRECTION ( 'NONE',  ( 1.000000000000000000, 0.000000000000000000, -0.000000000000000000 ) ) ;
#98 = DIRECTION ( 'NONE',  ( 0.000000000000000000, 0.000000000000000000, 1.000000000000000000 ) ) ;
#99 = AXIS2_PLACEMENT_3D ( 'NONE', #107, #177, #53 ) ;
#100 = CC_DESIGN_PERSON_AND_ORGANIZATION_ASSIGNMENT ( #24, #148, ( #158 ) ) ;
#101 = DATE_AND_TIME ( #103, #119 ) ;
#102 = DIRECTION ( 'NONE',  ( -0.000000000000000000, -0.000000000000000000, -1.000000000000000000 ) ) ;
#103 = CALENDAR_DATE ( 2023, 12, 2 ) ;
#104 = PLANE ( 'NONE',  #173 ) ;
#105 = ORIENTED_EDGE ( 'NONE', *, *, #247, .T. ) ;
#106 = CARTESIAN_POINT ( 'NONE',  ( -4.000000000000000000, 0.000000000000000000, 0.000000000000000000 ) ) ;
#107 = CARTESIAN_POINT ( 'NONE',  ( 0.000000000000000000, 0.000000000000000000, 3.000000000000000000 ) ) ;
#108 = ORIENTED_EDGE ( 'NONE', *, *, #229, .F. ) ;
#109 =( NAMED_UNIT ( * ) SI_UNIT ( $, .STERADIAN. ) SOLID_ANGLE_UNIT ( ) );
#110 = DIRECTION ( 'NONE',  ( -0.000000000000000000, -0.000000000000000000, -1.000000000000000000 ) ) ;
#111 = PLANE ( 'NONE',  #150 ) ;
#112 = FACE_OUTER_BOUND ( 'NONE', #255, .T. ) ;
#113 = EDGE_LOOP ( 'NONE', ( #201, #34 ) ) ;
#114 = EDGE_CURVE ( 'NONE', #1, #253, #243, .T. ) ;
#115 = AXIS2_PLACEMENT_3D ( 'NONE', #60, #19, #138 ) ;
#116 = CARTESIAN_POINT ( 'NONE',  ( 0.000000000000000000, 0.000000000000000000, 200.0000000000000000 ) ) ;
#117 = DIRECTION ( 'NONE',  ( 0.000000000000000000, 0.000000000000000000, 1.000000000000000000 ) ) ;
#118 = SHAPE_DEFINITION_REPRESENTATION ( #11, #233 ) ;
#119 = LOCAL_TIME ( 13, 37, 1.000000000000000000, #192 ) ;
#120 = PERSON_AND_ORGANIZATION_ROLE ( 'classification_officer' ) ;
#121 = APPROVAL_ROLE ( '' ) ;
#122 = EDGE_CURVE ( 'NONE', #225, #134, #235, .T. ) ;
#123 = ORIENTED_EDGE ( 'NONE', *, *, #91, .F. ) ;
#124 = EDGE_CURVE ( 'NONE', #134, #225, #204, .T. ) ;
#125 = CIRCLE ( 'NONE', #63, 2.100000000000000089 ) ;
#126 = AXIS2_PLACEMENT_3D ( 'NONE', #182, #139, #95 ) ;
#127 = VECTOR ( 'NONE', #102, 1000.000000000000000 ) ;
#128 = APPROVAL_STATUS ( 'not_yet_approved' ) ;
#129 = DIRECTION ( 'NONE',  ( 0.000000000000000000, 0.000000000000000000, 1.000000000000000000 ) ) ;
#130 = VERTEX_POINT ( 'NONE', #106 ) ;
#131 = ADVANCED_FACE ( 'NONE', ( #199 ), #51, .T. ) ;
#132 = CC_DESIGN_DATE_AND_TIME_ASSIGNMENT ( #48, #196, ( #158 ) ) ;
#133 = CARTESIAN_POINT ( 'NONE',  ( 0.000000000000000000, 0.000000000000000000, 3.000000000000000000 ) ) ;
#134 = VERTEX_POINT ( 'NONE', #8 ) ;
#135 = APPLICATION_CONTEXT ( 'configuration controlled 3d designs of mechanical parts and assemblies' ) ;
#136 = CARTESIAN_POINT ( 'NONE',  ( -4.000000000000000000, 0.000000000000000000, 3.000000000000000000 ) ) ;
#137 = DIRECTION ( 'NONE',  ( -0.000000000000000000, -0.000000000000000000, -1.000000000000000000 ) ) ;
#138 = DIRECTION ( 'NONE',  ( 1.000000000000000000, 0.000000000000000000, 0.000000000000000000 ) ) ;
#139 = DIRECTION ( 'NONE',  ( 0.000000000000000000, 0.000000000000000000, 1.000000000000000000 ) ) ;
#140 = ORIENTED_EDGE ( 'NONE', *, *, #247, .F. ) ;
#141 =( NAMED_UNIT ( * ) PLANE_ANGLE_UNIT ( ) SI_UNIT ( $, .RADIAN. ) );
#142 =( GEOMETRIC_REPRESENTATION_CONTEXT ( 3 ) GLOBAL_UNCERTAINTY_ASSIGNED_CONTEXT ( ( #250 ) ) GLOBAL_UNIT_ASSIGNED_CONTEXT ( ( #236, #141, #109 ) ) REPRESENTATION_CONTEXT ( 'NONE', 'WORKASPACE' ) );
#143 = LOCAL_TIME ( 13, 37, 1.000000000000000000, #147 ) ;
#144 = APPROVAL ( #77, 'NEURÈENÝ' ) ;
#145 = CARTESIAN_POINT ( 'NONE',  ( 2.100000000000000089, 2.571758278209441957E-16, 200.0000000000000000 ) ) ;
#146 = APPROVAL_ROLE ( '' ) ;
#147 = COORDINATED_UNIVERSAL_TIME_OFFSET ( 1, 0, .AHEAD. ) ;
#148 = PERSON_AND_ORGANIZATION_ROLE ( 'creator' ) ;
#149 = DIRECTION ( 'NONE',  ( 1.000000000000000000, 0.000000000000000000, 0.000000000000000000 ) ) ;
#150 = AXIS2_PLACEMENT_3D ( 'NONE', #22, #203, #97 ) ;
#151 = DIRECTION ( 'NONE',  ( -1.000000000000000000, 0.000000000000000000, 0.000000000000000000 ) ) ;
#152 = ORIENTED_EDGE ( 'NONE', *, *, #229, .T. ) ;
#153 = APPROVAL_DATE_TIME ( #223, #159 ) ;
#154 = DIRECTION ( 'NONE',  ( -0.000000000000000000, -0.000000000000000000, -1.000000000000000000 ) ) ;
#155 = ORIENTED_EDGE ( 'NONE', *, *, #59, .F. ) ;
#156 = FACE_OUTER_BOUND ( 'NONE', #113, .T. ) ;
#157 = CARTESIAN_POINT ( 'NONE',  ( 0.000000000000000000, 0.000000000000000000, 3.000000000000000000 ) ) ;
#158 = PRODUCT_DEFINITION ( 'NEZNÁMÝ', '', #56, #208 ) ;
#159 = APPROVAL ( #88, 'NEURÈENÝ' ) ;
#160 = CARTESIAN_POINT ( 'NONE',  ( 0.000000000000000000, 0.000000000000000000, 0.000000000000000000 ) ) ;
#161 = EDGE_CURVE ( 'NONE', #134, #52, #83, .T. ) ;
#162 = COORDINATED_UNIVERSAL_TIME_OFFSET ( 1, 0, .AHEAD. ) ;
#163 = APPROVAL_PERSON_ORGANIZATION ( #32, #159, #121 ) ;
#164 = MECHANICAL_CONTEXT ( 'NONE', #58, 'mechanical' ) ;
#165 = CYLINDRICAL_SURFACE ( 'NONE', #226, 4.000000000000000000 ) ;
#166 = LOCAL_TIME ( 13, 37, 1.000000000000000000, #162 ) ;
#167 = CARTESIAN_POINT ( 'NONE',  ( 0.000000000000000000, 0.000000000000000000, 3.000000000000000000 ) ) ;
#168 = APPROVAL_DATE_TIME ( #101, #234 ) ;
#169 = EDGE_CURVE ( 'NONE', #225, #130, #87, .T. ) ;
#170 = CC_DESIGN_PERSON_AND_ORGANIZATION_ASSIGNMENT ( #14, #120, ( #61 ) ) ;
#171 = DATE_TIME_ROLE ( 'classification_date' ) ;
#172 = EDGE_LOOP ( 'NONE', ( #92, #36, #152, #227 ) ) ;
#173 = AXIS2_PLACEMENT_3D ( 'NONE', #194, #69, #175 ) ;
#174 = PERSON_AND_ORGANIZATION ( #93, #17 ) ;
#175 = DIRECTION ( 'NONE',  ( 1.000000000000000000, 0.000000000000000000, -0.000000000000000000 ) ) ;
#176 = ORIENTED_EDGE ( 'NONE', *, *, #80, .T. ) ;
#177 = DIRECTION ( 'NONE',  ( 0.000000000000000000, 0.000000000000000000, 1.000000000000000000 ) ) ;
#178 = EDGE_LOOP ( 'NONE', ( #246, #108 ) ) ;
#179 = VECTOR ( 'NONE', #110, 1000.000000000000000 ) ;
#180 = ORIENTED_EDGE ( 'NONE', *, *, #114, .F. ) ;
#181 = DIRECTION ( 'NONE',  ( 0.000000000000000000, 0.000000000000000000, 1.000000000000000000 ) ) ;
#182 = CARTESIAN_POINT ( 'NONE',  ( 0.000000000000000000, 0.000000000000000000, 3.000000000000000000 ) ) ;
#183 = CC_DESIGN_APPROVAL ( #159, ( #61 ) ) ;
#184 = ADVANCED_FACE ( 'NONE', ( #33 ), #104, .F. ) ;
#185 = CC_DESIGN_PERSON_AND_ORGANIZATION_ASSIGNMENT ( #174, #251, ( #56 ) ) ;
#186 = CARTESIAN_POINT ( 'NONE',  ( -2.100000000000000089, 0.000000000000000000, 200.0000000000000000 ) ) ;
#187 = APPROVAL_PERSON_ORGANIZATION ( #66, #144, #146 ) ;
#188 = APPLICATION_PROTOCOL_DEFINITION ( 'international standard', 'config_control_design', 1994, #135 ) ;
#189 = APPROVAL_DATE_TIME ( #44, #144 ) ;
#190 = DIRECTION ( 'NONE',  ( 1.000000000000000000, 0.000000000000000000, 0.000000000000000000 ) ) ;
#191 = APPROVAL_PERSON_ORGANIZATION ( #82, #234, #50 ) ;
#192 = COORDINATED_UNIVERSAL_TIME_OFFSET ( 1, 0, .AHEAD. ) ;
#193 = DIRECTION ( 'NONE',  ( 0.000000000000000000, 0.000000000000000000, 1.000000000000000000 ) ) ;
#194 = CARTESIAN_POINT ( 'NONE',  ( 0.000000000000000000, 0.000000000000000000, 0.000000000000000000 ) ) ;
#195 = ORIENTED_EDGE ( 'NONE', *, *, #161, .F. ) ;
#196 = DATE_TIME_ROLE ( 'creation_date' ) ;
#197 = DIRECTION ( 'NONE',  ( -0.000000000000000000, -0.000000000000000000, -1.000000000000000000 ) ) ;
#198 = MANIFOLD_SOLID_BREP ( 'Pøidat vysunutím3', #96 ) ;
#199 = FACE_OUTER_BOUND ( 'NONE', #41, .T. ) ;
#200 = CARTESIAN_POINT ( 'NONE',  ( 2.100000000000000089, 2.571758278209441957E-16, 3.000000000000000000 ) ) ;
#201 = ORIENTED_EDGE ( 'NONE', *, *, #122, .T. ) ;
#202 = CC_DESIGN_PERSON_AND_ORGANIZATION_ASSIGNMENT ( #40, #242, ( #4 ) ) ;
#203 = DIRECTION ( 'NONE',  ( 0.000000000000000000, 0.000000000000000000, 1.000000000000000000 ) ) ;
#204 = CIRCLE ( 'NONE', #39, 4.000000000000000000 ) ;
#205 = CARTESIAN_POINT ( 'NONE',  ( 0.000000000000000000, 0.000000000000000000, 200.0000000000000000 ) ) ;
#206 = DIRECTION ( 'NONE',  ( -0.000000000000000000, -0.000000000000000000, -1.000000000000000000 ) ) ;
#207 = DIRECTION ( 'NONE',  ( 1.000000000000000000, 0.000000000000000000, 0.000000000000000000 ) ) ;
#208 = DESIGN_CONTEXT ( 'detailed design', #135, 'design' ) ;
#209 = CARTESIAN_POINT ( 'NONE',  ( 0.000000000000000000, 0.000000000000000000, 3.000000000000000000 ) ) ;
#210 = ORIENTED_EDGE ( 'NONE', *, *, #220, .T. ) ;
#211 = PERSON_AND_ORGANIZATION_ROLE ( 'design_supplier' ) ;
#212 = VECTOR ( 'NONE', #154, 1000.000000000000000 ) ;
#213 = ORIENTED_EDGE ( 'NONE', *, *, #80, .F. ) ;
#214 = PLANE ( 'NONE',  #99 ) ;
#215 = ORIENTED_EDGE ( 'NONE', *, *, #16, .F. ) ;
#216 = ORIENTED_EDGE ( 'NONE', *, *, #59, .T. ) ;
#217 = DIRECTION ( 'NONE',  ( -1.000000000000000000, 0.000000000000000000, 0.000000000000000000 ) ) ;
#218 = CARTESIAN_POINT ( 'NONE',  ( -2.100000000000000089, 0.000000000000000000, 200.0000000000000000 ) ) ;
#219 = DIRECTION ( 'NONE',  ( -1.000000000000000000, 0.000000000000000000, 0.000000000000000000 ) ) ;
#220 = EDGE_CURVE ( 'NONE', #130, #52, #31, .T. ) ;
#221 = CALENDAR_DATE ( 2023, 12, 2 ) ;
#222 = ADVANCED_FACE ( 'NONE', ( #71, #156 ), #214, .T. ) ;
#223 = DATE_AND_TIME ( #90, #65 ) ;
#224 = DIRECTION ( 'NONE',  ( 1.000000000000000000, 0.000000000000000000, 0.000000000000000000 ) ) ;
#225 = VERTEX_POINT ( 'NONE', #136 ) ;
#226 = AXIS2_PLACEMENT_3D ( 'NONE', #167, #47, #219 ) ;
#227 = ORIENTED_EDGE ( 'NONE', *, *, #169, .F. ) ;
#228 = AXIS2_PLACEMENT_3D ( 'NONE', #252, #129, #224 ) ;
#229 = EDGE_CURVE ( 'NONE', #52, #130, #23, .T. ) ;
#230 = CYLINDRICAL_SURFACE ( 'NONE', #21, 2.100000000000000089 ) ;
#231 = APPLICATION_PROTOCOL_DEFINITION ( 'international standard', 'config_control_design', 1994, #58 ) ;
#232 = CC_DESIGN_SECURITY_CLASSIFICATION ( #61, ( #56 ) ) ;
#233 = ADVANCED_BREP_SHAPE_REPRESENTATION ( 'a4e2', ( #198, #7 ), #142 ) ;
#234 = APPROVAL ( #128, 'NEURÈENÝ' ) ;
#235 = CIRCLE ( 'NONE', #25, 4.000000000000000000 ) ;
#236 =( LENGTH_UNIT ( ) NAMED_UNIT ( * ) SI_UNIT ( .MILLI., .METRE. ) );
#237 = CARTESIAN_POINT ( 'NONE',  ( 2.100000000000000089, 2.571758278209441957E-16, 200.0000000000000000 ) ) ;
#238 = PRODUCT_RELATED_PRODUCT_CATEGORY ( 'detail', '', ( #4 ) ) ;
#239 = CC_DESIGN_APPROVAL ( #144, ( #158 ) ) ;
#240 = CALENDAR_DATE ( 2023, 12, 2 ) ;
#241 = AXIS2_PLACEMENT_3D ( 'NONE', #133, #197, #151 ) ;
#242 = PERSON_AND_ORGANIZATION_ROLE ( 'design_owner' ) ;
#243 = LINE ( 'NONE', #145, #54 ) ;
#244 = AXIS2_PLACEMENT_3D ( 'NONE', #205, #27, #190 ) ;
#245 = CARTESIAN_POINT ( 'NONE',  ( -4.000000000000000000, 0.000000000000000000, 3.000000000000000000 ) ) ;
#246 = ORIENTED_EDGE ( 'NONE', *, *, #220, .F. ) ;
#247 = EDGE_CURVE ( 'NONE', #18, #72, #94, .T. ) ;
#248 = PERSON_AND_ORGANIZATION ( #93, #17 ) ;
#249 = CC_DESIGN_DATE_AND_TIME_ASSIGNMENT ( #84, #171, ( #61 ) ) ;
#250 = UNCERTAINTY_MEASURE_WITH_UNIT (LENGTH_MEASURE( 1.000000000000000082E-05 ), #236, 'distance_accuracy_value', 'NONE');
#251 = PERSON_AND_ORGANIZATION_ROLE ( 'creator' ) ;
#252 = CARTESIAN_POINT ( 'NONE',  ( 0.000000000000000000, 0.000000000000000000, 0.000000000000000000 ) ) ;
#253 = VERTEX_POINT ( 'NONE', #200 ) ;
#254 = SECURITY_CLASSIFICATION_LEVEL ( 'unclassified' ) ;
#255 = EDGE_LOOP ( 'NONE', ( #15, #176 ) ) ;
ENDSEC;
END-ISO-10303-21;
