ISO-10303-21;
HEADER;
FILE_DESCRIPTION (( 'STEP AP203' ),
    '1' );
FILE_NAME ('c246.STEP',
    '2022-07-07T09:30:45',
    ( '' ),
    ( '' ),
    'SwSTEP 2.0',
    'SolidWorks 2019',
    '' );
FILE_SCHEMA (( 'CONFIG_CONTROL_DESIGN' ));
ENDSEC;

DATA;
#1 = DIRECTION ( 'NONE',  ( 0.000000000000000000, 0.000000000000000000, 1.000000000000000000 ) ) ;
#2 = DIRECTION ( 'NONE',  ( 1.000000000000000000, 0.000000000000000000, 0.000000000000000000 ) ) ;
#3 = ADVANCED_FACE ( 'NONE', ( #79 ), #13, .T. ) ;
#4 = DIRECTION ( 'NONE',  ( 1.000000000000000000, 0.000000000000000000, 0.000000000000000000 ) ) ;
#5 = VERTEX_POINT ( 'NONE', #277 ) ;
#6 = ORIENTED_EDGE ( 'NONE', *, *, #122, .T. ) ;
#7 = CARTESIAN_POINT ( 'NONE',  ( -16.00000000000000000, 0.000000000000000000, 10.00000000000000000 ) ) ;
#8 = ORIENTED_EDGE ( 'NONE', *, *, #21, .T. ) ;
#9 = APPROVAL_PERSON_ORGANIZATION ( #35, #239, #278 ) ;
#10 = CIRCLE ( 'NONE', #127, 16.00000000000000000 ) ;
#11 = SHAPE_DEFINITION_REPRESENTATION ( #295, #213 ) ;
#12 = DIRECTION ( 'NONE',  ( 0.000000000000000000, 0.000000000000000000, 1.000000000000000000 ) ) ;
#13 = PLANE ( 'NONE',  #55 ) ;
#14 = CALENDAR_DATE ( 2022, 7, 7 ) ;
#15 = PERSON_AND_ORGANIZATION_ROLE ( 'creator' ) ;
#16 = CARTESIAN_POINT ( 'NONE',  ( -12.70000000000000107, 1.555301434917138630E-15, 9.999999999999992895 ) ) ;
#17 = CARTESIAN_POINT ( 'NONE',  ( 0.000000000000000000, 0.000000000000000000, 10.00000000000000000 ) ) ;
#18 = COORDINATED_UNIVERSAL_TIME_OFFSET ( 1, 0, .AHEAD. ) ;
#19 = CARTESIAN_POINT ( 'NONE',  ( -12.50000000000000000, 0.000000000000000000, 1010.000000000000000 ) ) ;
#20 = VECTOR ( 'NONE', #101, 1000.000000000000000 ) ;
#21 = EDGE_CURVE ( 'NONE', #171, #166, #54, .T. ) ;
#22 = DIRECTION ( 'NONE',  ( -0.000000000000000000, -0.000000000000000000, -1.000000000000000000 ) ) ;
#23 = TOROIDAL_SURFACE ( 'NONE', #197, 12.70000000000000107, 0.2000000000000000111 ) ;
#24 = ORIENTED_EDGE ( 'NONE', *, *, #98, .T. ) ;
#25 = AXIS2_PLACEMENT_3D ( 'NONE', #181, #230, #110 ) ;
#26 = ORIENTED_EDGE ( 'NONE', *, *, #106, .F. ) ;
#27 = AXIS2_PLACEMENT_3D ( 'NONE', #63, #41, #82 ) ;
#28 = ORIENTED_EDGE ( 'NONE', *, *, #91, .T. ) ;
#29 = CARTESIAN_POINT ( 'NONE',  ( 0.000000000000000000, 0.000000000000000000, 10.00000000000000000 ) ) ;
#30 = LINE ( 'NONE', #7, #20 ) ;
#31 = DATE_AND_TIME ( #152, #170 ) ;
#32 = ORIENTED_EDGE ( 'NONE', *, *, #21, .F. ) ;
#33 = ORGANIZATION ( 'NEURÈENÝ', 'NEURÈENÝ', '' ) ;
#34 = AXIS2_PLACEMENT_3D ( 'NONE', #17, #112, #43 ) ;
#35 = PERSON_AND_ORGANIZATION ( #156, #33 ) ;
#36 = PERSON_AND_ORGANIZATION ( #156, #33 ) ;
#37 = EDGE_LOOP ( 'NONE', ( #97, #133, #269, #216 ) ) ;
#38 = AXIS2_PLACEMENT_3D ( 'NONE', #237, #209, #2 ) ;
#39 = APPROVAL_DATE_TIME ( #257, #119 ) ;
#40 = CARTESIAN_POINT ( 'NONE',  ( 12.50000000000000000, 1.530808498934191521E-15, 1010.000000000000000 ) ) ;
#41 = DIRECTION ( 'NONE',  ( 0.000000000000000000, 0.000000000000000000, 1.000000000000000000 ) ) ;
#42 = DIRECTION ( 'NONE',  ( -1.000000000000000000, 0.000000000000000000, 0.000000000000000000 ) ) ;
#43 = DIRECTION ( 'NONE',  ( -1.000000000000000000, 0.000000000000000000, 0.000000000000000000 ) ) ;
#44 = CC_DESIGN_APPROVAL ( #193, ( #99 ) ) ;
#45 = CARTESIAN_POINT ( 'NONE',  ( 0.000000000000000000, 0.000000000000000000, 10.00000000000000000 ) ) ;
#46 = DIRECTION ( 'NONE',  ( 0.000000000000000000, 0.000000000000000000, 1.000000000000000000 ) ) ;
#47 = EDGE_CURVE ( 'NONE', #81, #245, #285, .T. ) ;
#48 = ORIENTED_EDGE ( 'NONE', *, *, #147, .F. ) ;
#49 = AXIS2_PLACEMENT_3D ( 'NONE', #155, #273, #62 ) ;
#50 = ORIENTED_EDGE ( 'NONE', *, *, #106, .T. ) ;
#51 = EDGE_CURVE ( 'NONE', #120, #158, #222, .T. ) ;
#52 = AXIS2_PLACEMENT_3D ( 'NONE', #290, #242, #286 ) ;
#53 = CC_DESIGN_PERSON_AND_ORGANIZATION_ASSIGNMENT ( #36, #288, ( #168 ) ) ;
#54 = LINE ( 'NONE', #40, #243 ) ;
#55 = AXIS2_PLACEMENT_3D ( 'NONE', #175, #259, #178 ) ;
#56 = CARTESIAN_POINT ( 'NONE',  ( 0.000000000000000000, 0.000000000000000000, 10.00000000000000000 ) ) ;
#57 = PERSON_AND_ORGANIZATION_ROLE ( 'creator' ) ;
#58 = DIRECTION ( 'NONE',  ( 0.000000000000000000, 0.000000000000000000, 1.000000000000000000 ) ) ;
#59 = DIRECTION ( 'NONE',  ( -0.000000000000000000, -0.000000000000000000, -1.000000000000000000 ) ) ;
#60 = COORDINATED_UNIVERSAL_TIME_OFFSET ( 1, 0, .AHEAD. ) ;
#61 = PLANE ( 'NONE',  #227 ) ;
#62 = DIRECTION ( 'NONE',  ( 1.000000000000000000, 0.000000000000000000, 0.000000000000000000 ) ) ;
#63 = CARTESIAN_POINT ( 'NONE',  ( 0.000000000000000000, 0.000000000000000000, 10.00000000000000000 ) ) ;
#64 =( NAMED_UNIT ( * ) PLANE_ANGLE_UNIT ( ) SI_UNIT ( $, .RADIAN. ) );
#65 = CIRCLE ( 'NONE', #224, 12.50000000000000000 ) ;
#66 = DIRECTION ( 'NONE',  ( -1.000000000000000000, 0.000000000000000000, 0.000000000000000000 ) ) ;
#67 = CYLINDRICAL_SURFACE ( 'NONE', #254, 12.50000000000000000 ) ;
#68 = CC_DESIGN_PERSON_AND_ORGANIZATION_ASSIGNMENT ( #132, #15, ( #141 ) ) ;
#69 = MECHANICAL_CONTEXT ( 'NONE', #142, 'mechanical' ) ;
#70 = DIRECTION ( 'NONE',  ( 0.000000000000000000, -1.000000000000000000, 0.000000000000000000 ) ) ;
#71 = EDGE_CURVE ( 'NONE', #219, #81, #30, .T. ) ;
#72 = FACE_OUTER_BOUND ( 'NONE', #190, .T. ) ;
#73 = EDGE_CURVE ( 'NONE', #219, #248, #241, .T. ) ;
#74 = VERTEX_POINT ( 'NONE', #297 ) ;
#75 = CIRCLE ( 'NONE', #117, 12.50000000000000000 ) ;
#76 = CARTESIAN_POINT ( 'NONE',  ( -12.70000000000000107, 1.555301434917138630E-15, 10.19999999999998685 ) ) ;
#77 = ORIENTED_EDGE ( 'NONE', *, *, #291, .T. ) ;
#78 = ORIENTED_EDGE ( 'NONE', *, *, #91, .F. ) ;
#79 = FACE_OUTER_BOUND ( 'NONE', #218, .T. ) ;
#80 = DIRECTION ( 'NONE',  ( -0.000000000000000000, -0.000000000000000000, -1.000000000000000000 ) ) ;
#81 = VERTEX_POINT ( 'NONE', #150 ) ;
#82 = DIRECTION ( 'NONE',  ( 1.000000000000000000, 0.000000000000000000, -0.000000000000000000 ) ) ;
#83 = APPROVAL_PERSON_ORGANIZATION ( #163, #119, #200 ) ;
#84 = UNCERTAINTY_MEASURE_WITH_UNIT (LENGTH_MEASURE( 1.000000000000000082E-05 ), #264, 'distance_accuracy_value', 'NONE');
#85 = APPROVAL_STATUS ( 'not_yet_approved' ) ;
#86 = DIRECTION ( 'NONE',  ( 1.000000000000000000, 0.000000000000000000, -0.000000000000000000 ) ) ;
#87 = APPROVAL_DATE_TIME ( #131, #193 ) ;
#88 = CARTESIAN_POINT ( 'NONE',  ( 12.50000000000000000, 1.530808498934191521E-15, 10.19999999999998685 ) ) ;
#89 = DATE_AND_TIME ( #14, #246 ) ;
#90 = CARTESIAN_POINT ( 'NONE',  ( 12.70000000000000107, 0.000000000000000000, 10.19999999999998685 ) ) ;
#91 = EDGE_CURVE ( 'NONE', #74, #120, #138, .T. ) ;
#92 = DIRECTION ( 'NONE',  ( 0.000000000000000000, 0.000000000000000000, 1.000000000000000000 ) ) ;
#93 = CLOSED_SHELL ( 'NONE', ( #196, #229, #96, #212, #167, #247, #276, #3, #206 ) ) ;
#94 = CIRCLE ( 'NONE', #194, 16.00000000000000000 ) ;
#95 = LOCAL_TIME ( 11, 30, 45.00000000000000000, #176 ) ;
#96 = ADVANCED_FACE ( 'NONE', ( #174 ), #275, .T. ) ;
#97 = ORIENTED_EDGE ( 'NONE', *, *, #139, .F. ) ;
#98 = EDGE_CURVE ( 'NONE', #5, #171, #75, .T. ) ;
#99 = PRODUCT_DEFINITION_FORMATION_WITH_SPECIFIED_SOURCE ( 'LIBOVOLNÝ', '', #168, .NOT_KNOWN. ) ;
#100 = VECTOR ( 'NONE', #80, 1000.000000000000000 ) ;
#101 = DIRECTION ( 'NONE',  ( -0.000000000000000000, -0.000000000000000000, -1.000000000000000000 ) ) ;
#102 = DIRECTION ( 'NONE',  ( 1.224646799147353207E-16, 1.000000000000000000, -0.000000000000000000 ) ) ;
#103 = ORIENTED_EDGE ( 'NONE', *, *, #51, .F. ) ;
#104 =( NAMED_UNIT ( * ) SI_UNIT ( $, .STERADIAN. ) SOLID_ANGLE_UNIT ( ) );
#105 = ORIENTED_EDGE ( 'NONE', *, *, #51, .T. ) ;
#106 = EDGE_CURVE ( 'NONE', #158, #120, #169, .T. ) ;
#107 = CYLINDRICAL_SURFACE ( 'NONE', #25, 12.50000000000000000 ) ;
#108 = FACE_BOUND ( 'NONE', #280, .T. ) ;
#109 = PERSON_AND_ORGANIZATION ( #156, #33 ) ;
#110 = DIRECTION ( 'NONE',  ( -1.000000000000000000, 0.000000000000000000, 0.000000000000000000 ) ) ;
#111 = PRODUCT_RELATED_PRODUCT_CATEGORY ( 'detail', '', ( #168 ) ) ;
#112 = DIRECTION ( 'NONE',  ( -0.000000000000000000, -0.000000000000000000, -1.000000000000000000 ) ) ;
#113 = DIRECTION ( 'NONE',  ( 1.000000000000000000, 0.000000000000000000, 0.000000000000000000 ) ) ;
#114 = CARTESIAN_POINT ( 'NONE',  ( 0.000000000000000000, 0.000000000000000000, 10.19999999999998685 ) ) ;
#115 = CC_DESIGN_APPROVAL ( #239, ( #296 ) ) ;
#116 = EDGE_CURVE ( 'NONE', #166, #158, #258, .T. ) ;
#117 = AXIS2_PLACEMENT_3D ( 'NONE', #134, #265, #4 ) ;
#118 = EDGE_LOOP ( 'NONE', ( #192, #251 ) ) ;
#119 = APPROVAL ( #153, 'NEURÈENÝ' ) ;
#120 = VERTEX_POINT ( 'NONE', #16 ) ;
#121 = DIRECTION ( 'NONE',  ( -0.000000000000000000, -0.000000000000000000, -1.000000000000000000 ) ) ;
#122 = EDGE_CURVE ( 'NONE', #171, #5, #271, .T. ) ;
#123 = EDGE_LOOP ( 'NONE', ( #300, #293 ) ) ;
#124 = DATE_TIME_ROLE ( 'classification_date' ) ;
#125 = LOCAL_TIME ( 11, 30, 45.00000000000000000, #60 ) ;
#126 = CARTESIAN_POINT ( 'NONE',  ( 0.000000000000000000, 0.000000000000000000, 10.00000000000000000 ) ) ;
#127 = AXIS2_PLACEMENT_3D ( 'NONE', #207, #307, #182 ) ;
#128 = CARTESIAN_POINT ( 'NONE',  ( 0.000000000000000000, 0.000000000000000000, 0.000000000000000000 ) ) ;
#129 = ORIENTED_EDGE ( 'NONE', *, *, #116, .F. ) ;
#130 = AXIS2_PLACEMENT_3D ( 'NONE', #56, #22, #66 ) ;
#131 = DATE_AND_TIME ( #208, #145 ) ;
#132 = PERSON_AND_ORGANIZATION ( #156, #33 ) ;
#133 = ORIENTED_EDGE ( 'NONE', *, *, #73, .F. ) ;
#134 = CARTESIAN_POINT ( 'NONE',  ( 0.000000000000000000, 0.000000000000000000, 1010.000000000000000 ) ) ;
#135 = CALENDAR_DATE ( 2022, 7, 7 ) ;
#136 = PLANE ( 'NONE',  #27 ) ;
#137 = DIRECTION ( 'NONE',  ( 1.000000000000000000, 0.000000000000000000, 0.000000000000000000 ) ) ;
#138 = CIRCLE ( 'NONE', #173, 0.2000000000000005107 ) ;
#139 = EDGE_CURVE ( 'NONE', #248, #245, #184, .T. ) ;
#140 = FACE_OUTER_BOUND ( 'NONE', #146, .T. ) ;
#141 = PRODUCT_DEFINITION ( 'NEZNÁMÝ', '', #99, #204 ) ;
#142 = APPLICATION_CONTEXT ( 'configuration controlled 3d designs of mechanical parts and assemblies' ) ;
#143 = CC_DESIGN_PERSON_AND_ORGANIZATION_ASSIGNMENT ( #226, #252, ( #296 ) ) ;
#144 = APPLICATION_CONTEXT ( 'configuration controlled 3d designs of mechanical parts and assemblies' ) ;
#145 = LOCAL_TIME ( 11, 30, 45.00000000000000000, #283 ) ;
#146 = EDGE_LOOP ( 'NONE', ( #228, #28, #26, #129 ) ) ;
#147 = EDGE_CURVE ( 'NONE', #248, #219, #94, .T. ) ;
#148 = AXIS2_PLACEMENT_3D ( 'NONE', #128, #1, #261 ) ;
#149 = ORIENTED_EDGE ( 'NONE', *, *, #281, .T. ) ;
#150 = CARTESIAN_POINT ( 'NONE',  ( -16.00000000000000000, 0.000000000000000000, 0.000000000000000000 ) ) ;
#151 = ORIENTED_EDGE ( 'NONE', *, *, #71, .F. ) ;
#152 = CALENDAR_DATE ( 2022, 7, 7 ) ;
#153 = APPROVAL_STATUS ( 'not_yet_approved' ) ;
#154 = APPROVAL_PERSON_ORGANIZATION ( #180, #193, #205 ) ;
#155 = CARTESIAN_POINT ( 'NONE',  ( 0.000000000000000000, 0.000000000000000000, 0.000000000000000000 ) ) ;
#156 = PERSON ( 'NEURÈENÝ', 'NEURÈENÝ', 'NEURÈENÝ', ('NEURÈENÝ'), ('NEURÈENÝ'), ('NEURÈENÝ') ) ;
#157 = CALENDAR_DATE ( 2022, 7, 7 ) ;
#158 = VERTEX_POINT ( 'NONE', #164 ) ;
#159 = CARTESIAN_POINT ( 'NONE',  ( 0.000000000000000000, 0.000000000000000000, 10.19999999999998685 ) ) ;
#160 = CARTESIAN_POINT ( 'NONE',  ( -16.00000000000000000, 0.000000000000000000, 10.00000000000000000 ) ) ;
#161 = LINE ( 'NONE', #19, #100 ) ;
#162 = CARTESIAN_POINT ( 'NONE',  ( 0.000000000000000000, 0.000000000000000000, 1010.000000000000000 ) ) ;
#163 = PERSON_AND_ORGANIZATION ( #156, #33 ) ;
#164 = CARTESIAN_POINT ( 'NONE',  ( 12.70000000000000107, 0.000000000000000000, 9.999999999999992895 ) ) ;
#165 = ORIENTED_EDGE ( 'NONE', *, *, #172, .T. ) ;
#166 = VERTEX_POINT ( 'NONE', #88 ) ;
#167 = ADVANCED_FACE ( 'NONE', ( #108, #235 ), #136, .T. ) ;
#168 = PRODUCT ( 'c246', 'c246', '', ( #69 ) ) ;
#169 = CIRCLE ( 'NONE', #38, 12.70000000000000107 ) ;
#170 = LOCAL_TIME ( 11, 30, 45.00000000000000000, #202 ) ;
#171 = VERTEX_POINT ( 'NONE', #267 ) ;
#172 = EDGE_CURVE ( 'NONE', #166, #74, #211, .T. ) ;
#173 = AXIS2_PLACEMENT_3D ( 'NONE', #76, #102, #298 ) ;
#174 = FACE_OUTER_BOUND ( 'NONE', #198, .T. ) ;
#175 = CARTESIAN_POINT ( 'NONE',  ( 0.000000000000000000, 0.000000000000000000, 1010.000000000000000 ) ) ;
#176 = COORDINATED_UNIVERSAL_TIME_OFFSET ( 1, 0, .AHEAD. ) ;
#177 = CC_DESIGN_PERSON_AND_ORGANIZATION_ASSIGNMENT ( #185, #57, ( #99 ) ) ;
#178 = DIRECTION ( 'NONE',  ( 1.000000000000000000, 0.000000000000000000, -0.000000000000000000 ) ) ;
#179 = FACE_OUTER_BOUND ( 'NONE', #37, .T. ) ;
#180 = PERSON_AND_ORGANIZATION ( #156, #33 ) ;
#181 = CARTESIAN_POINT ( 'NONE',  ( 0.000000000000000000, 0.000000000000000000, 1010.000000000000000 ) ) ;
#182 = DIRECTION ( 'NONE',  ( 1.000000000000000000, 0.000000000000000000, 0.000000000000000000 ) ) ;
#183 = SECURITY_CLASSIFICATION_LEVEL ( 'unclassified' ) ;
#184 = LINE ( 'NONE', #189, #231 ) ;
#185 = PERSON_AND_ORGANIZATION ( #156, #33 ) ;
#186 = APPLICATION_PROTOCOL_DEFINITION ( 'international standard', 'config_control_design', 1994, #142 ) ;
#187 = DIRECTION ( 'NONE',  ( 0.000000000000000000, 0.000000000000000000, -1.000000000000000000 ) ) ;
#188 = TOROIDAL_SURFACE ( 'NONE', #289, 12.70000000000000107, 0.2000000000000000111 ) ;
#189 = CARTESIAN_POINT ( 'NONE',  ( 16.00000000000000000, 1.959434878635765131E-15, 10.00000000000000000 ) ) ;
#190 = EDGE_LOOP ( 'NONE', ( #78, #255, #225, #103 ) ) ;
#191 = MANIFOLD_SOLID_BREP ( 'Zaoblit1', #93 ) ;
#192 = ORIENTED_EDGE ( 'NONE', *, *, #47, .F. ) ;
#193 = APPROVAL ( #85, 'NEURÈENÝ' ) ;
#194 = AXIS2_PLACEMENT_3D ( 'NONE', #45, #92, #113 ) ;
#195 = DIRECTION ( 'NONE',  ( 1.000000000000000000, 0.000000000000000000, 0.000000000000000000 ) ) ;
#196 = ADVANCED_FACE ( 'NONE', ( #140 ), #188, .F. ) ;
#197 = AXIS2_PLACEMENT_3D ( 'NONE', #159, #282, #137 ) ;
#198 = EDGE_LOOP ( 'NONE', ( #48, #199, #270, #151 ) ) ;
#199 = ORIENTED_EDGE ( 'NONE', *, *, #139, .T. ) ;
#200 = APPROVAL_ROLE ( '' ) ;
#201 = ORIENTED_EDGE ( 'NONE', *, *, #291, .F. ) ;
#202 = COORDINATED_UNIVERSAL_TIME_OFFSET ( 1, 0, .AHEAD. ) ;
#203 = CARTESIAN_POINT ( 'NONE',  ( 0.000000000000000000, 0.000000000000000000, 10.19999999999998685 ) ) ;
#204 = DESIGN_CONTEXT ( 'detailed design', #144, 'design' ) ;
#205 = APPROVAL_ROLE ( '' ) ;
#206 = ADVANCED_FACE ( 'NONE', ( #72 ), #23, .F. ) ;
#207 = CARTESIAN_POINT ( 'NONE',  ( 0.000000000000000000, 0.000000000000000000, 0.000000000000000000 ) ) ;
#208 = CALENDAR_DATE ( 2022, 7, 7 ) ;
#209 = DIRECTION ( 'NONE',  ( -0.000000000000000000, -0.000000000000000000, -1.000000000000000000 ) ) ;
#210 = DIRECTION ( 'NONE',  ( 1.000000000000000000, 0.000000000000000000, 0.000000000000000000 ) ) ;
#211 = CIRCLE ( 'NONE', #244, 12.50000000000000000 ) ;
#212 = ADVANCED_FACE ( 'NONE', ( #179 ), #260, .T. ) ;
#213 = ADVANCED_BREP_SHAPE_REPRESENTATION ( 'c246', ( #191, #148 ), #272 ) ;
#214 = AXIS2_PLACEMENT_3D ( 'NONE', #90, #70, #187 ) ;
#215 = EDGE_CURVE ( 'NONE', #245, #81, #10, .T. ) ;
#216 = ORIENTED_EDGE ( 'NONE', *, *, #47, .T. ) ;
#217 = EDGE_LOOP ( 'NONE', ( #302, #8, #165, #201 ) ) ;
#218 = EDGE_LOOP ( 'NONE', ( #24, #6 ) ) ;
#219 = VERTEX_POINT ( 'NONE', #160 ) ;
#220 = CC_DESIGN_PERSON_AND_ORGANIZATION_ASSIGNMENT ( #109, #233, ( #99 ) ) ;
#221 = CC_DESIGN_SECURITY_CLASSIFICATION ( #296, ( #99 ) ) ;
#222 = CIRCLE ( 'NONE', #294, 12.70000000000000107 ) ;
#223 = DIRECTION ( 'NONE',  ( 1.000000000000000000, 0.000000000000000000, 0.000000000000000000 ) ) ;
#224 = AXIS2_PLACEMENT_3D ( 'NONE', #284, #301, #279 ) ;
#225 = ORIENTED_EDGE ( 'NONE', *, *, #116, .T. ) ;
#226 = PERSON_AND_ORGANIZATION ( #156, #33 ) ;
#227 = AXIS2_PLACEMENT_3D ( 'NONE', #304, #58, #86 ) ;
#228 = ORIENTED_EDGE ( 'NONE', *, *, #281, .F. ) ;
#229 = ADVANCED_FACE ( 'NONE', ( #262 ), #67, .T. ) ;
#230 = DIRECTION ( 'NONE',  ( -0.000000000000000000, -0.000000000000000000, -1.000000000000000000 ) ) ;
#231 = VECTOR ( 'NONE', #292, 1000.000000000000000 ) ;
#232 = EDGE_LOOP ( 'NONE', ( #32, #249, #77, #149 ) ) ;
#233 = PERSON_AND_ORGANIZATION_ROLE ( 'design_supplier' ) ;
#234 = CARTESIAN_POINT ( 'NONE',  ( 16.00000000000000000, 1.959434878635765131E-15, 0.000000000000000000 ) ) ;
#235 = FACE_OUTER_BOUND ( 'NONE', #123, .T. ) ;
#236 = FACE_OUTER_BOUND ( 'NONE', #232, .T. ) ;
#237 = CARTESIAN_POINT ( 'NONE',  ( 0.000000000000000000, 0.000000000000000000, 10.00000000000000000 ) ) ;
#238 = CARTESIAN_POINT ( 'NONE',  ( 16.00000000000000000, 1.959434878635765131E-15, 10.00000000000000000 ) ) ;
#239 = APPROVAL ( #299, 'NEURÈENÝ' ) ;
#240 = DIRECTION ( 'NONE',  ( -0.000000000000000000, -0.000000000000000000, -1.000000000000000000 ) ) ;
#241 = CIRCLE ( 'NONE', #274, 16.00000000000000000 ) ;
#242 = DIRECTION ( 'NONE',  ( 0.000000000000000000, 0.000000000000000000, 1.000000000000000000 ) ) ;
#243 = VECTOR ( 'NONE', #59, 1000.000000000000000 ) ;
#244 = AXIS2_PLACEMENT_3D ( 'NONE', #203, #46, #287 ) ;
#245 = VERTEX_POINT ( 'NONE', #234 ) ;
#246 = LOCAL_TIME ( 11, 30, 45.00000000000000000, #18 ) ;
#247 = ADVANCED_FACE ( 'NONE', ( #253 ), #61, .F. ) ;
#248 = VERTEX_POINT ( 'NONE', #238 ) ;
#249 = ORIENTED_EDGE ( 'NONE', *, *, #98, .F. ) ;
#250 = DATE_AND_TIME ( #135, #125 ) ;
#251 = ORIENTED_EDGE ( 'NONE', *, *, #215, .F. ) ;
#252 = PERSON_AND_ORGANIZATION_ROLE ( 'classification_officer' ) ;
#253 = FACE_OUTER_BOUND ( 'NONE', #118, .T. ) ;
#254 = AXIS2_PLACEMENT_3D ( 'NONE', #162, #240, #42 ) ;
#255 = ORIENTED_EDGE ( 'NONE', *, *, #172, .F. ) ;
#256 = CC_DESIGN_DATE_AND_TIME_ASSIGNMENT ( #31, #306, ( #141 ) ) ;
#257 = DATE_AND_TIME ( #157, #95 ) ;
#258 = CIRCLE ( 'NONE', #214, 0.2000000000000005107 ) ;
#259 = DIRECTION ( 'NONE',  ( 0.000000000000000000, 0.000000000000000000, 1.000000000000000000 ) ) ;
#260 = CYLINDRICAL_SURFACE ( 'NONE', #34, 16.00000000000000000 ) ;
#261 = DIRECTION ( 'NONE',  ( 1.000000000000000000, 0.000000000000000000, 0.000000000000000000 ) ) ;
#262 = FACE_OUTER_BOUND ( 'NONE', #217, .T. ) ;
#263 = CC_DESIGN_DATE_AND_TIME_ASSIGNMENT ( #89, #124, ( #296 ) ) ;
#264 =( LENGTH_UNIT ( ) NAMED_UNIT ( * ) SI_UNIT ( .MILLI., .METRE. ) );
#265 = DIRECTION ( 'NONE',  ( 0.000000000000000000, 0.000000000000000000, 1.000000000000000000 ) ) ;
#266 = APPLICATION_PROTOCOL_DEFINITION ( 'international standard', 'config_control_design', 1994, #144 ) ;
#267 = CARTESIAN_POINT ( 'NONE',  ( 12.50000000000000000, 1.530808498934191521E-15, 1010.000000000000000 ) ) ;
#268 = CC_DESIGN_APPROVAL ( #119, ( #141 ) ) ;
#269 = ORIENTED_EDGE ( 'NONE', *, *, #71, .T. ) ;
#270 = ORIENTED_EDGE ( 'NONE', *, *, #215, .T. ) ;
#271 = CIRCLE ( 'NONE', #52, 12.50000000000000000 ) ;
#272 =( GEOMETRIC_REPRESENTATION_CONTEXT ( 3 ) GLOBAL_UNCERTAINTY_ASSIGNED_CONTEXT ( ( #84 ) ) GLOBAL_UNIT_ASSIGNED_CONTEXT ( ( #264, #64, #104 ) ) REPRESENTATION_CONTEXT ( 'NONE', 'WORKASPACE' ) );
#273 = DIRECTION ( 'NONE',  ( 0.000000000000000000, 0.000000000000000000, 1.000000000000000000 ) ) ;
#274 = AXIS2_PLACEMENT_3D ( 'NONE', #126, #12, #195 ) ;
#275 = CYLINDRICAL_SURFACE ( 'NONE', #130, 16.00000000000000000 ) ;
#276 = ADVANCED_FACE ( 'NONE', ( #236 ), #107, .T. ) ;
#277 = CARTESIAN_POINT ( 'NONE',  ( -12.50000000000000000, 0.000000000000000000, 1010.000000000000000 ) ) ;
#278 = APPROVAL_ROLE ( '' ) ;
#279 = DIRECTION ( 'NONE',  ( 1.000000000000000000, 0.000000000000000000, 0.000000000000000000 ) ) ;
#280 = EDGE_LOOP ( 'NONE', ( #50, #105 ) ) ;
#281 = EDGE_CURVE ( 'NONE', #74, #166, #65, .T. ) ;
#282 = DIRECTION ( 'NONE',  ( 0.000000000000000000, 0.000000000000000000, 1.000000000000000000 ) ) ;
#283 = COORDINATED_UNIVERSAL_TIME_OFFSET ( 1, 0, .AHEAD. ) ;
#284 = CARTESIAN_POINT ( 'NONE',  ( 0.000000000000000000, 0.000000000000000000, 10.19999999999998685 ) ) ;
#285 = CIRCLE ( 'NONE', #49, 16.00000000000000000 ) ;
#286 = DIRECTION ( 'NONE',  ( 1.000000000000000000, 0.000000000000000000, 0.000000000000000000 ) ) ;
#287 = DIRECTION ( 'NONE',  ( 1.000000000000000000, 0.000000000000000000, 0.000000000000000000 ) ) ;
#288 = PERSON_AND_ORGANIZATION_ROLE ( 'design_owner' ) ;
#289 = AXIS2_PLACEMENT_3D ( 'NONE', #114, #305, #210 ) ;
#290 = CARTESIAN_POINT ( 'NONE',  ( 0.000000000000000000, 0.000000000000000000, 1010.000000000000000 ) ) ;
#291 = EDGE_CURVE ( 'NONE', #5, #74, #161, .T. ) ;
#292 = DIRECTION ( 'NONE',  ( -0.000000000000000000, -0.000000000000000000, -1.000000000000000000 ) ) ;
#293 = ORIENTED_EDGE ( 'NONE', *, *, #147, .T. ) ;
#294 = AXIS2_PLACEMENT_3D ( 'NONE', #29, #121, #223 ) ;
#295 = PRODUCT_DEFINITION_SHAPE ( 'NONE', 'NONE',  #141 ) ;
#296 = SECURITY_CLASSIFICATION ( '', '', #183 ) ;
#297 = CARTESIAN_POINT ( 'NONE',  ( -12.50000000000000000, 0.000000000000000000, 10.19999999999998685 ) ) ;
#298 = DIRECTION ( 'NONE',  ( -1.000000000000000000, 1.224646799147353207E-16, 0.000000000000000000 ) ) ;
#299 = APPROVAL_STATUS ( 'not_yet_approved' ) ;
#300 = ORIENTED_EDGE ( 'NONE', *, *, #73, .T. ) ;
#301 = DIRECTION ( 'NONE',  ( 0.000000000000000000, 0.000000000000000000, 1.000000000000000000 ) ) ;
#302 = ORIENTED_EDGE ( 'NONE', *, *, #122, .F. ) ;
#303 = APPROVAL_DATE_TIME ( #250, #239 ) ;
#304 = CARTESIAN_POINT ( 'NONE',  ( 0.000000000000000000, 0.000000000000000000, 0.000000000000000000 ) ) ;
#305 = DIRECTION ( 'NONE',  ( 0.000000000000000000, 0.000000000000000000, 1.000000000000000000 ) ) ;
#306 = DATE_TIME_ROLE ( 'creation_date' ) ;
#307 = DIRECTION ( 'NONE',  ( 0.000000000000000000, 0.000000000000000000, 1.000000000000000000 ) ) ;
ENDSEC;
END-ISO-10303-21;
