ISO-10303-21;
HEADER;
FILE_DESCRIPTION (( 'STEP AP203' ),
    '1' );
FILE_NAME ('d075.STEP',
    '2022-07-07T10:08:49',
    ( '' ),
    ( '' ),
    'SwSTEP 2.0',
    'SolidWorks 2019',
    '' );
FILE_SCHEMA (( 'CONFIG_CONTROL_DESIGN' ));
ENDSEC;

DATA;
#1 = CC_DESIGN_DATE_AND_TIME_ASSIGNMENT ( #82, #197, ( #90 ) ) ;
#2 = MANIFOLD_SOLID_BREP ( 'Zaoblit1', #134 ) ;
#3 = DIRECTION ( 'NONE',  ( -0.000000000000000000, -0.000000000000000000, -1.000000000000000000 ) ) ;
#4 = VERTEX_POINT ( 'NONE', #233 ) ;
#5 = PERSON_AND_ORGANIZATION ( #170, #150 ) ;
#6 = VECTOR ( 'NONE', #184, 1000.000000000000000 ) ;
#7 = SECURITY_CLASSIFICATION_LEVEL ( 'unclassified' ) ;
#8 = CALENDAR_DATE ( 2022, 7, 7 ) ;
#9 = APPLICATION_CONTEXT ( 'configuration controlled 3d designs of mechanical parts and assemblies' ) ;
#10 = EDGE_CURVE ( 'NONE', #124, #4, #159, .T. ) ;
#11 = DIRECTION ( 'NONE',  ( -1.000000000000000000, 0.000000000000000000, 0.000000000000000000 ) ) ;
#12 = DIRECTION ( 'NONE',  ( 0.000000000000000000, 0.000000000000000000, 1.000000000000000000 ) ) ;
#13 = CARTESIAN_POINT ( 'NONE',  ( 0.000000000000000000, 0.000000000000000000, 5.199999999999982414 ) ) ;
#14 = ADVANCED_BREP_SHAPE_REPRESENTATION ( 'd075', ( #2, #260 ), #187 ) ;
#15 = CIRCLE ( 'NONE', #186, 6.000000000000000888 ) ;
#16 = FACE_OUTER_BOUND ( 'NONE', #223, .T. ) ;
#17 = MECHANICAL_CONTEXT ( 'NONE', #9, 'mechanical' ) ;
#18 = DIRECTION ( 'NONE',  ( -1.000000000000000000, 0.000000000000000000, 0.000000000000000000 ) ) ;
#19 = CARTESIAN_POINT ( 'NONE',  ( 0.000000000000000000, 0.000000000000000000, 405.0000000000000000 ) ) ;
#20 = EDGE_CURVE ( 'NONE', #243, #37, #225, .T. ) ;
#21 = DIRECTION ( 'NONE',  ( -0.000000000000000000, -0.000000000000000000, -1.000000000000000000 ) ) ;
#22 = CALENDAR_DATE ( 2022, 7, 7 ) ;
#23 = ORIENTED_EDGE ( 'NONE', *, *, #285, .F. ) ;
#24 = ORIENTED_EDGE ( 'NONE', *, *, #277, .T. ) ;
#25 = EDGE_CURVE ( 'NONE', #31, #124, #267, .T. ) ;
#26 = ORIENTED_EDGE ( 'NONE', *, *, #20, .T. ) ;
#27 = COORDINATED_UNIVERSAL_TIME_OFFSET ( 1, 0, .AHEAD. ) ;
#28 = CIRCLE ( 'NONE', #204, 0.1999999999999996503 ) ;
#29 = ORIENTED_EDGE ( 'NONE', *, *, #230, .T. ) ;
#30 = ADVANCED_FACE ( 'NONE', ( #131, #112 ), #61, .T. ) ;
#31 = VERTEX_POINT ( 'NONE', #276 ) ;
#32 = CYLINDRICAL_SURFACE ( 'NONE', #48, 3.250000000000000444 ) ;
#33 = PERSON_AND_ORGANIZATION ( #170, #150 ) ;
#34 = AXIS2_PLACEMENT_3D ( 'NONE', #213, #161, #140 ) ;
#35 = CARTESIAN_POINT ( 'NONE',  ( 0.000000000000000000, 0.000000000000000000, 5.199999999999982414 ) ) ;
#36 = CARTESIAN_POINT ( 'NONE',  ( 3.250000000000000444, 3.980102097228898231E-16, 405.0000000000000000 ) ) ;
#37 = VERTEX_POINT ( 'NONE', #133 ) ;
#38 = PRODUCT_RELATED_PRODUCT_CATEGORY ( 'detail', '', ( #53 ) ) ;
#39 = LOCAL_TIME ( 12, 8, 49.00000000000000000, #27 ) ;
#40 = DIRECTION ( 'NONE',  ( 0.000000000000000000, 0.000000000000000000, 1.000000000000000000 ) ) ;
#41 = APPLICATION_PROTOCOL_DEFINITION ( 'international standard', 'config_control_design', 1994, #257 ) ;
#42 = EDGE_CURVE ( 'NONE', #194, #72, #178, .T. ) ;
#43 = DIRECTION ( 'NONE',  ( 1.000000000000000000, 0.000000000000000000, 0.000000000000000000 ) ) ;
#44 = PERSON_AND_ORGANIZATION ( #170, #150 ) ;
#45 = ADVANCED_FACE ( 'NONE', ( #231 ), #132, .F. ) ;
#46 = DIRECTION ( 'NONE',  ( -1.000000000000000000, 0.000000000000000000, 0.000000000000000000 ) ) ;
#47 = LINE ( 'NONE', #265, #191 ) ;
#48 = AXIS2_PLACEMENT_3D ( 'NONE', #303, #199, #63 ) ;
#49 = CALENDAR_DATE ( 2022, 7, 7 ) ;
#50 = CARTESIAN_POINT ( 'NONE',  ( 0.000000000000000000, 0.000000000000000000, 5.000000000000000000 ) ) ;
#51 = ORIENTED_EDGE ( 'NONE', *, *, #84, .T. ) ;
#52 = PRODUCT_DEFINITION_FORMATION_WITH_SPECIFIED_SOURCE ( 'LIBOVOLNÝ', '', #53, .NOT_KNOWN. ) ;
#53 = PRODUCT ( 'd075', 'd075', '', ( #17 ) ) ;
#54 = CC_DESIGN_PERSON_AND_ORGANIZATION_ASSIGNMENT ( #249, #110, ( #90 ) ) ;
#55 = PERSON_AND_ORGANIZATION ( #170, #150 ) ;
#56 = EDGE_LOOP ( 'NONE', ( #295, #23 ) ) ;
#57 = CIRCLE ( 'NONE', #273, 6.000000000000000888 ) ;
#58 = LOCAL_TIME ( 12, 8, 49.00000000000000000, #147 ) ;
#59 = ORIENTED_EDGE ( 'NONE', *, *, #25, .T. ) ;
#60 = CARTESIAN_POINT ( 'NONE',  ( 0.000000000000000000, 0.000000000000000000, 5.199999999999982414 ) ) ;
#61 = PLANE ( 'NONE',  #286 ) ;
#62 = AXIS2_PLACEMENT_3D ( 'NONE', #214, #287, #46 ) ;
#63 = DIRECTION ( 'NONE',  ( -1.000000000000000000, 0.000000000000000000, 0.000000000000000000 ) ) ;
#64 = CARTESIAN_POINT ( 'NONE',  ( 0.000000000000000000, 0.000000000000000000, 5.000000000000000000 ) ) ;
#65 = APPROVAL ( #78, 'NEURÈENÝ' ) ;
#66 = FACE_OUTER_BOUND ( 'NONE', #297, .T. ) ;
#67 =( NAMED_UNIT ( * ) SI_UNIT ( $, .STERADIAN. ) SOLID_ANGLE_UNIT ( ) );
#68 = DIRECTION ( 'NONE',  ( -0.000000000000000000, -0.000000000000000000, -1.000000000000000000 ) ) ;
#69 = CARTESIAN_POINT ( 'NONE',  ( 0.000000000000000000, 0.000000000000000000, 0.000000000000000000 ) ) ;
#70 = AXIS2_PLACEMENT_3D ( 'NONE', #50, #68, #18 ) ;
#71 = CYLINDRICAL_SURFACE ( 'NONE', #70, 6.000000000000000888 ) ;
#72 = VERTEX_POINT ( 'NONE', #180 ) ;
#73 = ADVANCED_FACE ( 'NONE', ( #176 ), #253, .T. ) ;
#74 = ORIENTED_EDGE ( 'NONE', *, *, #20, .F. ) ;
#75 = SECURITY_CLASSIFICATION ( '', '', #7 ) ;
#76 = DATE_AND_TIME ( #22, #141 ) ;
#77 = EDGE_LOOP ( 'NONE', ( #224, #144 ) ) ;
#78 = APPROVAL_STATUS ( 'not_yet_approved' ) ;
#79 = ORIENTED_EDGE ( 'NONE', *, *, #277, .F. ) ;
#80 = CIRCLE ( 'NONE', #246, 3.250000000000000444 ) ;
#81 = DIRECTION ( 'NONE',  ( 1.000000000000000000, 0.000000000000000000, -0.000000000000000000 ) ) ;
#82 = DATE_AND_TIME ( #126, #58 ) ;
#83 = DIRECTION ( 'NONE',  ( -1.000000000000000000, 1.224646799147350742E-16, 0.000000000000000000 ) ) ;
#84 = EDGE_CURVE ( 'NONE', #124, #31, #259, .T. ) ;
#85 = EDGE_LOOP ( 'NONE', ( #217, #216, #59, #193 ) ) ;
#86 = VECTOR ( 'NONE', #114, 1000.000000000000000 ) ;
#87 = CARTESIAN_POINT ( 'NONE',  ( 0.000000000000000000, 0.000000000000000000, 0.000000000000000000 ) ) ;
#88 = ORIENTED_EDGE ( 'NONE', *, *, #215, .F. ) ;
#89 = DIRECTION ( 'NONE',  ( 0.000000000000000000, -1.000000000000000000, 0.000000000000000000 ) ) ;
#90 = PRODUCT_DEFINITION ( 'NEZNÁMÝ', '', #52, #189 ) ;
#91 = CARTESIAN_POINT ( 'NONE',  ( 0.000000000000000000, 0.000000000000000000, 5.000000000000000000 ) ) ;
#92 = AXIS2_PLACEMENT_3D ( 'NONE', #64, #174, #154 ) ;
#93 = APPROVAL_PERSON_ORGANIZATION ( #296, #242, #272 ) ;
#94 = CARTESIAN_POINT ( 'NONE',  ( 3.250000000000000444, 3.980102097228898231E-16, 405.0000000000000000 ) ) ;
#95 = DIRECTION ( 'NONE',  ( 1.000000000000000000, 0.000000000000000000, 0.000000000000000000 ) ) ;
#96 = CARTESIAN_POINT ( 'NONE',  ( 3.450000000000000178, 0.000000000000000000, 4.999999999999991118 ) ) ;
#97 = FACE_OUTER_BOUND ( 'NONE', #122, .T. ) ;
#98 = AXIS2_PLACEMENT_3D ( 'NONE', #13, #304, #201 ) ;
#99 = ADVANCED_FACE ( 'NONE', ( #66 ), #252, .F. ) ;
#100 = ORIENTED_EDGE ( 'NONE', *, *, #10, .T. ) ;
#101 = ADVANCED_FACE ( 'NONE', ( #281 ), #32, .T. ) ;
#102 = VERTEX_POINT ( 'NONE', #36 ) ;
#103 = AXIS2_PLACEMENT_3D ( 'NONE', #165, #21, #43 ) ;
#104 = ORIENTED_EDGE ( 'NONE', *, *, #175, .T. ) ;
#105 = CALENDAR_DATE ( 2022, 7, 7 ) ;
#106 = DATE_AND_TIME ( #49, #305 ) ;
#107 = CARTESIAN_POINT ( 'NONE',  ( 0.000000000000000000, 0.000000000000000000, 5.199999999999982414 ) ) ;
#108 = AXIS2_PLACEMENT_3D ( 'NONE', #153, #299, #81 ) ;
#109 = LINE ( 'NONE', #301, #283 ) ;
#110 = PERSON_AND_ORGANIZATION_ROLE ( 'creator' ) ;
#111 = DIRECTION ( 'NONE',  ( 0.000000000000000000, 0.000000000000000000, 1.000000000000000000 ) ) ;
#112 = FACE_OUTER_BOUND ( 'NONE', #196, .T. ) ;
#113 = DIRECTION ( 'NONE',  ( 1.000000000000000000, 0.000000000000000000, 0.000000000000000000 ) ) ;
#114 = DIRECTION ( 'NONE',  ( -0.000000000000000000, -0.000000000000000000, -1.000000000000000000 ) ) ;
#115 = APPROVAL_STATUS ( 'not_yet_approved' ) ;
#116 = AXIS2_PLACEMENT_3D ( 'NONE', #226, #156, #11 ) ;
#117 = CARTESIAN_POINT ( 'NONE',  ( -6.000000000000000888, 0.000000000000000000, 0.000000000000000000 ) ) ;
#118 = ADVANCED_FACE ( 'NONE', ( #16 ), #298, .F. ) ;
#119 = CC_DESIGN_PERSON_AND_ORGANIZATION_ASSIGNMENT ( #282, #234, ( #53 ) ) ;
#120 = APPROVAL_DATE_TIME ( #76, #274 ) ;
#121 = ADVANCED_FACE ( 'NONE', ( #157 ), #179, .T. ) ;
#122 = EDGE_LOOP ( 'NONE', ( #74, #205, #145, #88 ) ) ;
#123 = ORIENTED_EDGE ( 'NONE', *, *, #288, .F. ) ;
#124 = VERTEX_POINT ( 'NONE', #251 ) ;
#125 = PERSON_AND_ORGANIZATION ( #170, #150 ) ;
#126 = CALENDAR_DATE ( 2022, 7, 7 ) ;
#127 = ORIENTED_EDGE ( 'NONE', *, *, #208, .F. ) ;
#128 = DIRECTION ( 'NONE',  ( 1.000000000000000000, 0.000000000000000000, 0.000000000000000000 ) ) ;
#129 = AXIS2_PLACEMENT_3D ( 'NONE', #203, #40, #278 ) ;
#130 = CC_DESIGN_SECURITY_CLASSIFICATION ( #75, ( #52 ) ) ;
#131 = FACE_BOUND ( 'NONE', #221, .T. ) ;
#132 = PLANE ( 'NONE',  #198 ) ;
#133 = CARTESIAN_POINT ( 'NONE',  ( -6.000000000000000888, 0.000000000000000000, 5.000000000000000000 ) ) ;
#134 = CLOSED_SHELL ( 'NONE', ( #118, #101, #210, #162, #30, #45, #73, #121, #99 ) ) ;
#135 = CIRCLE ( 'NONE', #34, 3.250000000000000444 ) ;
#136 = DIRECTION ( 'NONE',  ( 0.000000000000000000, 0.000000000000000000, 1.000000000000000000 ) ) ;
#137 = DIRECTION ( 'NONE',  ( 1.000000000000000000, 0.000000000000000000, 0.000000000000000000 ) ) ;
#138 = DIRECTION ( 'NONE',  ( 0.000000000000000000, 0.000000000000000000, -1.000000000000000000 ) ) ;
#139 = APPROVAL_ROLE ( '' ) ;
#140 = DIRECTION ( 'NONE',  ( 1.000000000000000000, 0.000000000000000000, 0.000000000000000000 ) ) ;
#141 = LOCAL_TIME ( 12, 8, 49.00000000000000000, #235 ) ;
#142 = CYLINDRICAL_SURFACE ( 'NONE', #62, 6.000000000000000888 ) ;
#143 = AXIS2_PLACEMENT_3D ( 'NONE', #202, #306, #83 ) ;
#144 = ORIENTED_EDGE ( 'NONE', *, *, #239, .T. ) ;
#145 = ORIENTED_EDGE ( 'NONE', *, *, #285, .T. ) ;
#146 = ORIENTED_EDGE ( 'NONE', *, *, #175, .F. ) ;
#147 = COORDINATED_UNIVERSAL_TIME_OFFSET ( 1, 0, .AHEAD. ) ;
#148 = DIRECTION ( 'NONE',  ( 1.000000000000000000, 0.000000000000000000, 0.000000000000000000 ) ) ;
#149 = AXIS2_PLACEMENT_3D ( 'NONE', #35, #136, #128 ) ;
#150 = ORGANIZATION ( 'NEURÈENÝ', 'NEURÈENÝ', '' ) ;
#151 = APPROVAL_STATUS ( 'not_yet_approved' ) ;
#152 = EDGE_CURVE ( 'NONE', #256, #124, #109, .T. ) ;
#153 = CARTESIAN_POINT ( 'NONE',  ( 0.000000000000000000, 0.000000000000000000, 405.0000000000000000 ) ) ;
#154 = DIRECTION ( 'NONE',  ( 1.000000000000000000, 0.000000000000000000, 0.000000000000000000 ) ) ;
#155 = CARTESIAN_POINT ( 'NONE',  ( 0.000000000000000000, 0.000000000000000000, 5.000000000000000000 ) ) ;
#156 = DIRECTION ( 'NONE',  ( -0.000000000000000000, -0.000000000000000000, -1.000000000000000000 ) ) ;
#157 = FACE_OUTER_BOUND ( 'NONE', #77, .T. ) ;
#158 = CC_DESIGN_PERSON_AND_ORGANIZATION_ASSIGNMENT ( #125, #300, ( #52 ) ) ;
#159 = CIRCLE ( 'NONE', #143, 0.2000000000000000944 ) ;
#160 = CARTESIAN_POINT ( 'NONE',  ( 0.000000000000000000, 0.000000000000000000, 5.000000000000000000 ) ) ;
#161 = DIRECTION ( 'NONE',  ( 0.000000000000000000, 0.000000000000000000, 1.000000000000000000 ) ) ;
#162 = ADVANCED_FACE ( 'NONE', ( #238 ), #142, .T. ) ;
#163 = APPLICATION_PROTOCOL_DEFINITION ( 'international standard', 'config_control_design', 1994, #9 ) ;
#164 = APPROVAL_PERSON_ORGANIZATION ( #55, #65, #245 ) ;
#165 = CARTESIAN_POINT ( 'NONE',  ( 0.000000000000000000, 0.000000000000000000, 5.000000000000000000 ) ) ;
#166 = ORIENTED_EDGE ( 'NONE', *, *, #169, .F. ) ;
#167 = CC_DESIGN_APPROVAL ( #65, ( #52 ) ) ;
#168 = EDGE_LOOP ( 'NONE', ( #166, #79, #250, #266 ) ) ;
#169 = EDGE_CURVE ( 'NONE', #243, #72, #47, .T. ) ;
#170 = PERSON ( 'NEURÈENÝ', 'NEURÈENÝ', 'NEURÈENÝ', ('NEURÈENÝ'), ('NEURÈENÝ'), ('NEURÈENÝ') ) ;
#171 = CC_DESIGN_PERSON_AND_ORGANIZATION_ASSIGNMENT ( #33, #172, ( #52 ) ) ;
#172 = PERSON_AND_ORGANIZATION_ROLE ( 'design_supplier' ) ;
#173 = SHAPE_DEFINITION_REPRESENTATION ( #270, #14 ) ;
#174 = DIRECTION ( 'NONE',  ( 0.000000000000000000, 0.000000000000000000, 1.000000000000000000 ) ) ;
#175 = EDGE_CURVE ( 'NONE', #4, #293, #236, .T. ) ;
#176 = FACE_OUTER_BOUND ( 'NONE', #190, .T. ) ;
#177 = DIRECTION ( 'NONE',  ( 1.000000000000000000, 0.000000000000000000, -0.000000000000000000 ) ) ;
#178 = CIRCLE ( 'NONE', #129, 6.000000000000000888 ) ;
#179 = PLANE ( 'NONE',  #108 ) ;
#180 = CARTESIAN_POINT ( 'NONE',  ( 6.000000000000000888, 7.347880794884120722E-16, 0.000000000000000000 ) ) ;
#181 = DIRECTION ( 'NONE',  ( 1.000000000000000000, 0.000000000000000000, 0.000000000000000000 ) ) ;
#182 = CARTESIAN_POINT ( 'NONE',  ( -6.000000000000000888, 0.000000000000000000, 5.000000000000000000 ) ) ;
#183 =( NAMED_UNIT ( * ) PLANE_ANGLE_UNIT ( ) SI_UNIT ( $, .RADIAN. ) );
#184 = DIRECTION ( 'NONE',  ( -0.000000000000000000, -0.000000000000000000, -1.000000000000000000 ) ) ;
#185 = DIRECTION ( 'NONE',  ( 0.000000000000000000, 0.000000000000000000, 1.000000000000000000 ) ) ;
#186 = AXIS2_PLACEMENT_3D ( 'NONE', #91, #185, #137 ) ;
#187 =( GEOMETRIC_REPRESENTATION_CONTEXT ( 3 ) GLOBAL_UNCERTAINTY_ASSIGNED_CONTEXT ( ( #291 ) ) GLOBAL_UNIT_ASSIGNED_CONTEXT ( ( #211, #183, #67 ) ) REPRESENTATION_CONTEXT ( 'NONE', 'WORKASPACE' ) );
#188 = ORIENTED_EDGE ( 'NONE', *, *, #208, .T. ) ;
#189 = DESIGN_CONTEXT ( 'detailed design', #257, 'design' ) ;
#190 = EDGE_LOOP ( 'NONE', ( #240, #123, #248, #51 ) ) ;
#191 = VECTOR ( 'NONE', #3, 1000.000000000000000 ) ;
#192 = CC_DESIGN_APPROVAL ( #274, ( #90 ) ) ;
#193 = ORIENTED_EDGE ( 'NONE', *, *, #152, .F. ) ;
#194 = VERTEX_POINT ( 'NONE', #117 ) ;
#195 = DATE_TIME_ROLE ( 'classification_date' ) ;
#196 = EDGE_LOOP ( 'NONE', ( #24, #26 ) ) ;
#197 = DATE_TIME_ROLE ( 'creation_date' ) ;
#198 = AXIS2_PLACEMENT_3D ( 'NONE', #87, #228, #258 ) ;
#199 = DIRECTION ( 'NONE',  ( -0.000000000000000000, -0.000000000000000000, -1.000000000000000000 ) ) ;
#200 = APPROVAL_DATE_TIME ( #106, #242 ) ;
#201 = DIRECTION ( 'NONE',  ( 1.000000000000000000, 0.000000000000000000, 0.000000000000000000 ) ) ;
#202 = CARTESIAN_POINT ( 'NONE',  ( -3.450000000000000178, 4.225031457058368824E-16, 5.199999999999982414 ) ) ;
#203 = CARTESIAN_POINT ( 'NONE',  ( 0.000000000000000000, 0.000000000000000000, 0.000000000000000000 ) ) ;
#204 = AXIS2_PLACEMENT_3D ( 'NONE', #307, #89, #138 ) ;
#205 = ORIENTED_EDGE ( 'NONE', *, *, #169, .T. ) ;
#206 = DIRECTION ( 'NONE',  ( 1.000000000000000000, 0.000000000000000000, 0.000000000000000000 ) ) ;
#207 = DIRECTION ( 'NONE',  ( -0.000000000000000000, -0.000000000000000000, -1.000000000000000000 ) ) ;
#208 = EDGE_CURVE ( 'NONE', #293, #4, #262, .T. ) ;
#209 = DIRECTION ( 'NONE',  ( 0.000000000000000000, 0.000000000000000000, 1.000000000000000000 ) ) ;
#210 = ADVANCED_FACE ( 'NONE', ( #97 ), #71, .T. ) ;
#211 =( LENGTH_UNIT ( ) NAMED_UNIT ( * ) SI_UNIT ( .MILLI., .METRE. ) );
#212 = LINE ( 'NONE', #182, #6 ) ;
#213 = CARTESIAN_POINT ( 'NONE',  ( 0.000000000000000000, 0.000000000000000000, 405.0000000000000000 ) ) ;
#214 = CARTESIAN_POINT ( 'NONE',  ( 0.000000000000000000, 0.000000000000000000, 5.000000000000000000 ) ) ;
#215 = EDGE_CURVE ( 'NONE', #37, #194, #212, .T. ) ;
#216 = ORIENTED_EDGE ( 'NONE', *, *, #229, .T. ) ;
#217 = ORIENTED_EDGE ( 'NONE', *, *, #239, .F. ) ;
#218 = CC_DESIGN_PERSON_AND_ORGANIZATION_ASSIGNMENT ( #5, #271, ( #75 ) ) ;
#219 = DATE_AND_TIME ( #8, #39 ) ;
#220 = AXIS2_PLACEMENT_3D ( 'NONE', #60, #12, #113 ) ;
#221 = EDGE_LOOP ( 'NONE', ( #188, #104 ) ) ;
#222 = COORDINATED_UNIVERSAL_TIME_OFFSET ( 1, 0, .AHEAD. ) ;
#223 = EDGE_LOOP ( 'NONE', ( #290, #100, #127, #269 ) ) ;
#224 = ORIENTED_EDGE ( 'NONE', *, *, #288, .T. ) ;
#225 = CIRCLE ( 'NONE', #92, 6.000000000000000888 ) ;
#226 = CARTESIAN_POINT ( 'NONE',  ( 0.000000000000000000, 0.000000000000000000, 405.0000000000000000 ) ) ;
#227 = CC_DESIGN_APPROVAL ( #242, ( #75 ) ) ;
#228 = DIRECTION ( 'NONE',  ( 0.000000000000000000, 0.000000000000000000, 1.000000000000000000 ) ) ;
#229 = EDGE_CURVE ( 'NONE', #102, #31, #261, .T. ) ;
#230 = EDGE_CURVE ( 'NONE', #31, #293, #28, .T. ) ;
#231 = FACE_OUTER_BOUND ( 'NONE', #56, .T. ) ;
#232 = CARTESIAN_POINT ( 'NONE',  ( 0.000000000000000000, 0.000000000000000000, 0.000000000000000000 ) ) ;
#233 = CARTESIAN_POINT ( 'NONE',  ( -3.450000000000000178, 4.225031457058368824E-16, 4.999999999999991118 ) ) ;
#234 = PERSON_AND_ORGANIZATION_ROLE ( 'design_owner' ) ;
#235 = COORDINATED_UNIVERSAL_TIME_OFFSET ( 1, 0, .AHEAD. ) ;
#236 = CIRCLE ( 'NONE', #103, 3.450000000000000178 ) ;
#237 = LOCAL_TIME ( 12, 8, 49.00000000000000000, #222 ) ;
#238 = FACE_OUTER_BOUND ( 'NONE', #168, .T. ) ;
#239 = EDGE_CURVE ( 'NONE', #102, #256, #80, .T. ) ;
#240 = ORIENTED_EDGE ( 'NONE', *, *, #229, .F. ) ;
#241 = DIRECTION ( 'NONE',  ( 0.000000000000000000, 0.000000000000000000, 1.000000000000000000 ) ) ;
#242 = APPROVAL ( #151, 'NEURÈENÝ' ) ;
#243 = VERTEX_POINT ( 'NONE', #255 ) ;
#244 = ORIENTED_EDGE ( 'NONE', *, *, #10, .F. ) ;
#245 = APPROVAL_ROLE ( '' ) ;
#246 = AXIS2_PLACEMENT_3D ( 'NONE', #19, #241, #148 ) ;
#247 = APPROVAL_PERSON_ORGANIZATION ( #44, #274, #139 ) ;
#248 = ORIENTED_EDGE ( 'NONE', *, *, #152, .T. ) ;
#249 = PERSON_AND_ORGANIZATION ( #170, #150 ) ;
#250 = ORIENTED_EDGE ( 'NONE', *, *, #215, .T. ) ;
#251 = CARTESIAN_POINT ( 'NONE',  ( -3.250000000000000444, 0.000000000000000000, 5.199999999999982414 ) ) ;
#252 = TOROIDAL_SURFACE ( 'NONE', #292, 3.450000000000000178, 0.2000000000000000111 ) ;
#253 = CYLINDRICAL_SURFACE ( 'NONE', #116, 3.250000000000000444 ) ;
#254 = DIRECTION ( 'NONE',  ( 0.000000000000000000, 0.000000000000000000, 1.000000000000000000 ) ) ;
#255 = CARTESIAN_POINT ( 'NONE',  ( 6.000000000000000888, 7.347880794884120722E-16, 5.000000000000000000 ) ) ;
#256 = VERTEX_POINT ( 'NONE', #302 ) ;
#257 = APPLICATION_CONTEXT ( 'configuration controlled 3d designs of mechanical parts and assemblies' ) ;
#258 = DIRECTION ( 'NONE',  ( 1.000000000000000000, 0.000000000000000000, -0.000000000000000000 ) ) ;
#259 = CIRCLE ( 'NONE', #220, 3.250000000000000444 ) ;
#260 = AXIS2_PLACEMENT_3D ( 'NONE', #69, #209, #206 ) ;
#261 = LINE ( 'NONE', #94, #86 ) ;
#262 = CIRCLE ( 'NONE', #279, 3.450000000000000178 ) ;
#263 = DIRECTION ( 'NONE',  ( -0.000000000000000000, -0.000000000000000000, -1.000000000000000000 ) ) ;
#264 = COORDINATED_UNIVERSAL_TIME_OFFSET ( 1, 0, .AHEAD. ) ;
#265 = CARTESIAN_POINT ( 'NONE',  ( 6.000000000000000888, 7.347880794884120722E-16, 5.000000000000000000 ) ) ;
#266 = ORIENTED_EDGE ( 'NONE', *, *, #42, .T. ) ;
#267 = CIRCLE ( 'NONE', #149, 3.250000000000000444 ) ;
#268 = CC_DESIGN_DATE_AND_TIME_ASSIGNMENT ( #294, #195, ( #75 ) ) ;
#269 = ORIENTED_EDGE ( 'NONE', *, *, #230, .F. ) ;
#270 = PRODUCT_DEFINITION_SHAPE ( 'NONE', 'NONE',  #90 ) ;
#271 = PERSON_AND_ORGANIZATION_ROLE ( 'classification_officer' ) ;
#272 = APPROVAL_ROLE ( '' ) ;
#273 = AXIS2_PLACEMENT_3D ( 'NONE', #232, #284, #181 ) ;
#274 = APPROVAL ( #115, 'NEURÈENÝ' ) ;
#275 = APPROVAL_DATE_TIME ( #219, #65 ) ;
#276 = CARTESIAN_POINT ( 'NONE',  ( 3.250000000000000444, 3.980102097228898231E-16, 5.199999999999982414 ) ) ;
#277 = EDGE_CURVE ( 'NONE', #37, #243, #15, .T. ) ;
#278 = DIRECTION ( 'NONE',  ( 1.000000000000000000, 0.000000000000000000, 0.000000000000000000 ) ) ;
#279 = AXIS2_PLACEMENT_3D ( 'NONE', #160, #207, #95 ) ;
#280 = DIRECTION ( 'NONE',  ( 1.000000000000000000, 0.000000000000000000, 0.000000000000000000 ) ) ;
#281 = FACE_OUTER_BOUND ( 'NONE', #85, .T. ) ;
#282 = PERSON_AND_ORGANIZATION ( #170, #150 ) ;
#283 = VECTOR ( 'NONE', #263, 1000.000000000000000 ) ;
#284 = DIRECTION ( 'NONE',  ( 0.000000000000000000, 0.000000000000000000, 1.000000000000000000 ) ) ;
#285 = EDGE_CURVE ( 'NONE', #72, #194, #57, .T. ) ;
#286 = AXIS2_PLACEMENT_3D ( 'NONE', #155, #254, #177 ) ;
#287 = DIRECTION ( 'NONE',  ( -0.000000000000000000, -0.000000000000000000, -1.000000000000000000 ) ) ;
#288 = EDGE_CURVE ( 'NONE', #256, #102, #135, .T. ) ;
#289 = ORIENTED_EDGE ( 'NONE', *, *, #25, .F. ) ;
#290 = ORIENTED_EDGE ( 'NONE', *, *, #84, .F. ) ;
#291 = UNCERTAINTY_MEASURE_WITH_UNIT (LENGTH_MEASURE( 1.000000000000000082E-05 ), #211, 'distance_accuracy_value', 'NONE');
#292 = AXIS2_PLACEMENT_3D ( 'NONE', #107, #111, #280 ) ;
#293 = VERTEX_POINT ( 'NONE', #96 ) ;
#294 = DATE_AND_TIME ( #105, #237 ) ;
#295 = ORIENTED_EDGE ( 'NONE', *, *, #42, .F. ) ;
#296 = PERSON_AND_ORGANIZATION ( #170, #150 ) ;
#297 = EDGE_LOOP ( 'NONE', ( #244, #289, #29, #146 ) ) ;
#298 = TOROIDAL_SURFACE ( 'NONE', #98, 3.450000000000000178, 0.2000000000000000111 ) ;
#299 = DIRECTION ( 'NONE',  ( 0.000000000000000000, 0.000000000000000000, 1.000000000000000000 ) ) ;
#300 = PERSON_AND_ORGANIZATION_ROLE ( 'creator' ) ;
#301 = CARTESIAN_POINT ( 'NONE',  ( -3.250000000000000444, 0.000000000000000000, 405.0000000000000000 ) ) ;
#302 = CARTESIAN_POINT ( 'NONE',  ( -3.250000000000000444, 0.000000000000000000, 405.0000000000000000 ) ) ;
#303 = CARTESIAN_POINT ( 'NONE',  ( 0.000000000000000000, 0.000000000000000000, 405.0000000000000000 ) ) ;
#304 = DIRECTION ( 'NONE',  ( 0.000000000000000000, 0.000000000000000000, 1.000000000000000000 ) ) ;
#305 = LOCAL_TIME ( 12, 8, 49.00000000000000000, #264 ) ;
#306 = DIRECTION ( 'NONE',  ( 1.224646799147353207E-16, 1.000000000000000000, -0.000000000000000000 ) ) ;
#307 = CARTESIAN_POINT ( 'NONE',  ( 3.450000000000000178, 0.000000000000000000, 5.199999999999982414 ) ) ;
ENDSEC;
END-ISO-10303-21;
