ISO-10303-21;
HEADER;
FILE_DESCRIPTION (( 'STEP AP203' ),
    '1' );
FILE_NAME ('9dbe.STEP',
    '2022-07-07T10:14:23',
    ( '' ),
    ( '' ),
    'SwSTEP 2.0',
    'SolidWorks 2019',
    '' );
FILE_SCHEMA (( 'CONFIG_CONTROL_DESIGN' ));
ENDSEC;

DATA;
#1 = CIRCLE ( 'NONE', #214, 5.000000000000000000 ) ;
#2 = VERTEX_POINT ( 'NONE', #146 ) ;
#3 = ADVANCED_FACE ( 'NONE', ( #280 ), #23, .T. ) ;
#4 = CALENDAR_DATE ( 2022, 7, 7 ) ;
#5 = EDGE_CURVE ( 'NONE', #197, #80, #113, .T. ) ;
#6 = AXIS2_PLACEMENT_3D ( 'NONE', #185, #277, #167 ) ;
#7 = APPLICATION_PROTOCOL_DEFINITION ( 'international standard', 'config_control_design', 1994, #49 ) ;
#8 = CARTESIAN_POINT ( 'NONE',  ( 0.000000000000000000, 0.000000000000000000, 3.199999999999980638 ) ) ;
#9 = AXIS2_PLACEMENT_3D ( 'NONE', #16, #186, #116 ) ;
#10 = DATE_AND_TIME ( #293, #137 ) ;
#11 = CARTESIAN_POINT ( 'NONE',  ( 0.000000000000000000, 0.000000000000000000, 1002.999999999999886 ) ) ;
#12 = PERSON_AND_ORGANIZATION ( #27, #92 ) ;
#13 = CIRCLE ( 'NONE', #301, 5.000000000000000000 ) ;
#14 = CARTESIAN_POINT ( 'NONE',  ( 0.000000000000000000, 0.000000000000000000, 3.000000000000000000 ) ) ;
#15 = ORIENTED_EDGE ( 'NONE', *, *, #156, .T. ) ;
#16 = CARTESIAN_POINT ( 'NONE',  ( 0.000000000000000000, 0.000000000000000000, 3.199999999999980638 ) ) ;
#17 = CARTESIAN_POINT ( 'NONE',  ( 0.000000000000000000, 0.000000000000000000, 3.000000000000000000 ) ) ;
#18 = ORIENTED_EDGE ( 'NONE', *, *, #25, .T. ) ;
#19 = PLANE ( 'NONE',  #172 ) ;
#20 = CIRCLE ( 'NONE', #174, 0.2000000000000000944 ) ;
#21 = ORIENTED_EDGE ( 'NONE', *, *, #46, .F. ) ;
#22 = AXIS2_PLACEMENT_3D ( 'NONE', #120, #168, #257 ) ;
#23 = PLANE ( 'NONE',  #22 ) ;
#24 = EDGE_LOOP ( 'NONE', ( #150, #68, #209, #169 ) ) ;
#25 = EDGE_CURVE ( 'NONE', #195, #71, #196, .T. ) ;
#26 = ORIENTED_EDGE ( 'NONE', *, *, #5, .F. ) ;
#27 = PERSON ( 'NEURÈENÝ', 'NEURÈENÝ', 'NEURÈENÝ', ('NEURÈENÝ'), ('NEURÈENÝ'), ('NEURÈENÝ') ) ;
#28 = AXIS2_PLACEMENT_3D ( 'NONE', #14, #299, #145 ) ;
#29 = CC_DESIGN_DATE_AND_TIME_ASSIGNMENT ( #175, #223, ( #121 ) ) ;
#30 = ORIENTED_EDGE ( 'NONE', *, *, #144, .F. ) ;
#31 = CARTESIAN_POINT ( 'NONE',  ( 0.000000000000000000, 0.000000000000000000, 0.000000000000000000 ) ) ;
#32 = APPROVAL_DATE_TIME ( #39, #106 ) ;
#33 = APPROVAL_PERSON_ORGANIZATION ( #89, #60, #61 ) ;
#34 = DIRECTION ( 'NONE',  ( 1.000000000000000000, 0.000000000000000000, 0.000000000000000000 ) ) ;
#35 = CARTESIAN_POINT ( 'NONE',  ( 5.000000000000000000, 6.123233995736766282E-16, 3.000000000000000000 ) ) ;
#36 = DIRECTION ( 'NONE',  ( 0.000000000000000000, 0.000000000000000000, 1.000000000000000000 ) ) ;
#37 = APPROVAL ( #58, 'NEURÈENÝ' ) ;
#38 = AXIS2_PLACEMENT_3D ( 'NONE', #17, #117, #227 ) ;
#39 = DATE_AND_TIME ( #4, #239 ) ;
#40 = DIRECTION ( 'NONE',  ( 0.000000000000000000, 0.000000000000000000, 1.000000000000000000 ) ) ;
#41 = ADVANCED_FACE ( 'NONE', ( #99 ), #193, .F. ) ;
#42 = PERSON_AND_ORGANIZATION_ROLE ( 'creator' ) ;
#43 = LINE ( 'NONE', #164, #266 ) ;
#44 = CARTESIAN_POINT ( 'NONE',  ( -5.000000000000000000, 0.000000000000000000, 3.000000000000000000 ) ) ;
#45 = EDGE_LOOP ( 'NONE', ( #236, #228, #53, #217 ) ) ;
#46 = EDGE_CURVE ( 'NONE', #71, #195, #229, .T. ) ;
#47 = DIRECTION ( 'NONE',  ( 1.000000000000000000, 0.000000000000000000, -0.000000000000000000 ) ) ;
#48 = DIRECTION ( 'NONE',  ( -0.000000000000000000, -0.000000000000000000, -1.000000000000000000 ) ) ;
#49 = APPLICATION_CONTEXT ( 'configuration controlled 3d designs of mechanical parts and assemblies' ) ;
#50 = ORIENTED_EDGE ( 'NONE', *, *, #249, .F. ) ;
#51 = ORIENTED_EDGE ( 'NONE', *, *, #248, .T. ) ;
#52 = CC_DESIGN_PERSON_AND_ORGANIZATION_ASSIGNMENT ( #181, #42, ( #246 ) ) ;
#53 = ORIENTED_EDGE ( 'NONE', *, *, #144, .T. ) ;
#54 = CC_DESIGN_APPROVAL ( #106, ( #246 ) ) ;
#55 = EDGE_LOOP ( 'NONE', ( #275, #30, #15, #21 ) ) ;
#56 = AXIS2_PLACEMENT_3D ( 'NONE', #256, #36, #220 ) ;
#57 = AXIS2_PLACEMENT_3D ( 'NONE', #304, #216, #306 ) ;
#58 = APPROVAL_STATUS ( 'not_yet_approved' ) ;
#59 = DIRECTION ( 'NONE',  ( 0.000000000000000000, 0.000000000000000000, 1.000000000000000000 ) ) ;
#60 = APPROVAL ( #202, 'NEURÈENÝ' ) ;
#61 = APPROVAL_ROLE ( '' ) ;
#62 = LOCAL_TIME ( 12, 14, 23.00000000000000000, #157 ) ;
#63 = CARTESIAN_POINT ( 'NONE',  ( 2.949999999999999734, 0.000000000000000000, 3.199999999999980638 ) ) ;
#64 = MANIFOLD_SOLID_BREP ( 'Zaoblit1', #254 ) ;
#65 = AXIS2_PLACEMENT_3D ( 'NONE', #8, #88, #244 ) ;
#66 = PERSON_AND_ORGANIZATION_ROLE ( 'design_supplier' ) ;
#67 = DIRECTION ( 'NONE',  ( -0.000000000000000000, -0.000000000000000000, -1.000000000000000000 ) ) ;
#68 = ORIENTED_EDGE ( 'NONE', *, *, #219, .T. ) ;
#69 = DIRECTION ( 'NONE',  ( 1.000000000000000000, 0.000000000000000000, 0.000000000000000000 ) ) ;
#70 = LINE ( 'NONE', #73, #208 ) ;
#71 = VERTEX_POINT ( 'NONE', #184 ) ;
#72 = DIRECTION ( 'NONE',  ( -0.000000000000000000, -0.000000000000000000, -1.000000000000000000 ) ) ;
#73 = CARTESIAN_POINT ( 'NONE',  ( 2.750000000000000000, 3.367778697655221012E-16, 1002.999999999999886 ) ) ;
#74 = AXIS2_PLACEMENT_3D ( 'NONE', #233, #276, #47 ) ;
#75 = FACE_BOUND ( 'NONE', #295, .T. ) ;
#76 = PRODUCT_RELATED_PRODUCT_CATEGORY ( 'detail', '', ( #82 ) ) ;
#77 = EDGE_LOOP ( 'NONE', ( #261, #26, #218, #100 ) ) ;
#78 = DIRECTION ( 'NONE',  ( 1.000000000000000000, 0.000000000000000000, 0.000000000000000000 ) ) ;
#79 = AXIS2_PLACEMENT_3D ( 'NONE', #98, #215, #78 ) ;
#80 = VERTEX_POINT ( 'NONE', #278 ) ;
#81 = ORIENTED_EDGE ( 'NONE', *, *, #294, .T. ) ;
#82 = PRODUCT ( '9dbe', '9dbe', '', ( #286 ) ) ;
#83 = COORDINATED_UNIVERSAL_TIME_OFFSET ( 1, 0, .AHEAD. ) ;
#84 = DIRECTION ( 'NONE',  ( 1.000000000000000000, 0.000000000000000000, 0.000000000000000000 ) ) ;
#85 = PERSON_AND_ORGANIZATION ( #27, #92 ) ;
#86 = EDGE_CURVE ( 'NONE', #197, #147, #43, .T. ) ;
#87 = DATE_AND_TIME ( #243, #62 ) ;
#88 = DIRECTION ( 'NONE',  ( 0.000000000000000000, 0.000000000000000000, 1.000000000000000000 ) ) ;
#89 = PERSON_AND_ORGANIZATION ( #27, #92 ) ;
#90 = DIRECTION ( 'NONE',  ( -0.000000000000000000, -0.000000000000000000, -1.000000000000000000 ) ) ;
#91 = EDGE_CURVE ( 'NONE', #147, #71, #125, .T. ) ;
#92 = ORGANIZATION ( 'NEURÈENÝ', 'NEURÈENÝ', '' ) ;
#93 = CARTESIAN_POINT ( 'NONE',  ( 5.000000000000000000, 6.123233995736766282E-16, 0.000000000000000000 ) ) ;
#94 = AXIS2_PLACEMENT_3D ( 'NONE', #11, #67, #205 ) ;
#95 = DIRECTION ( 'NONE',  ( 1.000000000000000000, 0.000000000000000000, 0.000000000000000000 ) ) ;
#96 = CC_DESIGN_DATE_AND_TIME_ASSIGNMENT ( #267, #200, ( #246 ) ) ;
#97 = CARTESIAN_POINT ( 'NONE',  ( -2.949999999999999734, 3.612708057484692097E-16, 3.199999999999980638 ) ) ;
#98 = CARTESIAN_POINT ( 'NONE',  ( 0.000000000000000000, 0.000000000000000000, 1002.999999999999886 ) ) ;
#99 = FACE_OUTER_BOUND ( 'NONE', #279, .T. ) ;
#100 = ORIENTED_EDGE ( 'NONE', *, *, #179, .T. ) ;
#101 = ADVANCED_FACE ( 'NONE', ( #141 ), #152, .F. ) ;
#102 = AXIS2_PLACEMENT_3D ( 'NONE', #250, #118, #69 ) ;
#103 = ORIENTED_EDGE ( 'NONE', *, *, #46, .T. ) ;
#104 = ADVANCED_FACE ( 'NONE', ( #75, #255 ), #19, .T. ) ;
#105 =( LENGTH_UNIT ( ) NAMED_UNIT ( * ) SI_UNIT ( .MILLI., .METRE. ) );
#106 = APPROVAL ( #242, 'NEURÈENÝ' ) ;
#107 = CALENDAR_DATE ( 2022, 7, 7 ) ;
#108 = FACE_OUTER_BOUND ( 'NONE', #77, .T. ) ;
#109 = APPROVAL_DATE_TIME ( #87, #60 ) ;
#110 = DIRECTION ( 'NONE',  ( 0.000000000000000000, -1.000000000000000000, 0.000000000000000000 ) ) ;
#111 = PERSON_AND_ORGANIZATION_ROLE ( 'classification_officer' ) ;
#112 = ORIENTED_EDGE ( 'NONE', *, *, #156, .F. ) ;
#113 = CIRCLE ( 'NONE', #79, 2.750000000000000000 ) ;
#114 = LINE ( 'NONE', #212, #238 ) ;
#115 = VERTEX_POINT ( 'NONE', #93 ) ;
#116 = DIRECTION ( 'NONE',  ( 1.000000000000000000, 0.000000000000000000, 0.000000000000000000 ) ) ;
#117 = DIRECTION ( 'NONE',  ( -0.000000000000000000, -0.000000000000000000, -1.000000000000000000 ) ) ;
#118 = DIRECTION ( 'NONE',  ( -0.000000000000000000, -0.000000000000000000, -1.000000000000000000 ) ) ;
#119 = EDGE_LOOP ( 'NONE', ( #171, #281, #170, #237 ) ) ;
#120 = CARTESIAN_POINT ( 'NONE',  ( 0.000000000000000000, 0.000000000000000000, 1002.999999999999886 ) ) ;
#121 = SECURITY_CLASSIFICATION ( '', '', #289 ) ;
#122 = ORIENTED_EDGE ( 'NONE', *, *, #25, .F. ) ;
#123 = CC_DESIGN_SECURITY_CLASSIFICATION ( #121, ( #234 ) ) ;
#124 = ORIENTED_EDGE ( 'NONE', *, *, #5, .T. ) ;
#125 = CIRCLE ( 'NONE', #287, 0.2000000000000000944 ) ;
#126 = APPLICATION_CONTEXT ( 'configuration controlled 3d designs of mechanical parts and assemblies' ) ;
#127 = DIRECTION ( 'NONE',  ( 0.000000000000000000, 0.000000000000000000, 1.000000000000000000 ) ) ;
#128 = PERSON_AND_ORGANIZATION ( #27, #92 ) ;
#129 = EDGE_CURVE ( 'NONE', #80, #197, #302, .T. ) ;
#130 = CARTESIAN_POINT ( 'NONE',  ( 2.750000000000000000, 3.367778697655221012E-16, 3.199999999999980638 ) ) ;
#131 = APPLICATION_PROTOCOL_DEFINITION ( 'international standard', 'config_control_design', 1994, #126 ) ;
#132 = FACE_OUTER_BOUND ( 'NONE', #188, .T. ) ;
#133 = DIRECTION ( 'NONE',  ( 0.000000000000000000, 0.000000000000000000, 1.000000000000000000 ) ) ;
#134 = CARTESIAN_POINT ( 'NONE',  ( -2.750000000000000000, 0.000000000000000000, 3.199999999999980638 ) ) ;
#135 = DESIGN_CONTEXT ( 'detailed design', #126, 'design' ) ;
#136 = PERSON_AND_ORGANIZATION ( #27, #92 ) ;
#137 = LOCAL_TIME ( 12, 14, 23.00000000000000000, #225 ) ;
#138 = ADVANCED_FACE ( 'NONE', ( #158 ), #271, .T. ) ;
#139 = LINE ( 'NONE', #44, #240 ) ;
#140 = CIRCLE ( 'NONE', #292, 2.750000000000000000 ) ;
#141 = FACE_OUTER_BOUND ( 'NONE', #55, .T. ) ;
#142 = FACE_OUTER_BOUND ( 'NONE', #24, .T. ) ;
#143 = CARTESIAN_POINT ( 'NONE',  ( 0.000000000000000000, 0.000000000000000000, 1002.999999999999886 ) ) ;
#144 = EDGE_CURVE ( 'NONE', #282, #147, #262, .T. ) ;
#145 = DIRECTION ( 'NONE',  ( -1.000000000000000000, 0.000000000000000000, 0.000000000000000000 ) ) ;
#146 = CARTESIAN_POINT ( 'NONE',  ( -5.000000000000000000, 0.000000000000000000, 3.000000000000000000 ) ) ;
#147 = VERTEX_POINT ( 'NONE', #134 ) ;
#148 = VERTEX_POINT ( 'NONE', #35 ) ;
#149 = ADVANCED_FACE ( 'NONE', ( #132 ), #194, .F. ) ;
#150 = ORIENTED_EDGE ( 'NONE', *, *, #294, .F. ) ;
#151 = PRODUCT_DEFINITION_SHAPE ( 'NONE', 'NONE',  #246 ) ;
#152 = TOROIDAL_SURFACE ( 'NONE', #9, 2.949999999999999734, 0.2000000000000000111 ) ;
#153 = CIRCLE ( 'NONE', #56, 5.000000000000000000 ) ;
#154 = PERSON_AND_ORGANIZATION ( #27, #92 ) ;
#155 = ADVANCED_BREP_SHAPE_REPRESENTATION ( '9dbe', ( #64, #235 ), #161 ) ;
#156 = EDGE_CURVE ( 'NONE', #282, #195, #20, .T. ) ;
#157 = COORDINATED_UNIVERSAL_TIME_OFFSET ( 1, 0, .AHEAD. ) ;
#158 = FACE_OUTER_BOUND ( 'NONE', #45, .T. ) ;
#159 = COORDINATED_UNIVERSAL_TIME_OFFSET ( 1, 0, .AHEAD. ) ;
#160 = CARTESIAN_POINT ( 'NONE',  ( 0.000000000000000000, 0.000000000000000000, 1002.999999999999886 ) ) ;
#161 =( GEOMETRIC_REPRESENTATION_CONTEXT ( 3 ) GLOBAL_UNCERTAINTY_ASSIGNED_CONTEXT ( ( #206 ) ) GLOBAL_UNIT_ASSIGNED_CONTEXT ( ( #105, #288, #285 ) ) REPRESENTATION_CONTEXT ( 'NONE', 'WORKASPACE' ) );
#162 = DIRECTION ( 'NONE',  ( 1.000000000000000000, 0.000000000000000000, 0.000000000000000000 ) ) ;
#163 = ADVANCED_FACE ( 'NONE', ( #108 ), #203, .T. ) ;
#164 = CARTESIAN_POINT ( 'NONE',  ( -2.750000000000000000, 0.000000000000000000, 1002.999999999999886 ) ) ;
#165 = CARTESIAN_POINT ( 'NONE',  ( -5.000000000000000000, 0.000000000000000000, 0.000000000000000000 ) ) ;
#166 = ORIENTED_EDGE ( 'NONE', *, *, #273, .F. ) ;
#167 = DIRECTION ( 'NONE',  ( 1.000000000000000000, 0.000000000000000000, 0.000000000000000000 ) ) ;
#168 = DIRECTION ( 'NONE',  ( 0.000000000000000000, 0.000000000000000000, 1.000000000000000000 ) ) ;
#169 = ORIENTED_EDGE ( 'NONE', *, *, #198, .F. ) ;
#170 = ORIENTED_EDGE ( 'NONE', *, *, #198, .T. ) ;
#171 = ORIENTED_EDGE ( 'NONE', *, *, #219, .F. ) ;
#172 = AXIS2_PLACEMENT_3D ( 'NONE', #211, #300, #298 ) ;
#173 = PERSON_AND_ORGANIZATION_ROLE ( 'creator' ) ;
#174 = AXIS2_PLACEMENT_3D ( 'NONE', #63, #110, #222 ) ;
#175 = DATE_AND_TIME ( #107, #260 ) ;
#176 = CC_DESIGN_PERSON_AND_ORGANIZATION_ASSIGNMENT ( #136, #173, ( #234 ) ) ;
#177 = SHAPE_DEFINITION_REPRESENTATION ( #151, #155 ) ;
#178 = DIRECTION ( 'NONE',  ( -0.000000000000000000, -0.000000000000000000, -1.000000000000000000 ) ) ;
#179 = EDGE_CURVE ( 'NONE', #147, #282, #140, .T. ) ;
#180 = DIRECTION ( 'NONE',  ( 0.000000000000000000, 0.000000000000000000, 1.000000000000000000 ) ) ;
#181 = PERSON_AND_ORGANIZATION ( #27, #92 ) ;
#182 = VERTEX_POINT ( 'NONE', #165 ) ;
#183 = DIRECTION ( 'NONE',  ( -0.000000000000000000, -0.000000000000000000, -1.000000000000000000 ) ) ;
#184 = CARTESIAN_POINT ( 'NONE',  ( -2.949999999999999734, 3.612708057484692097E-16, 2.999999999999990674 ) ) ;
#185 = CARTESIAN_POINT ( 'NONE',  ( 0.000000000000000000, 0.000000000000000000, 3.000000000000000000 ) ) ;
#186 = DIRECTION ( 'NONE',  ( 0.000000000000000000, 0.000000000000000000, 1.000000000000000000 ) ) ;
#187 = AXIS2_PLACEMENT_3D ( 'NONE', #143, #180, #224 ) ;
#188 = EDGE_LOOP ( 'NONE', ( #259, #253, #122, #112 ) ) ;
#189 = APPROVAL_PERSON_ORGANIZATION ( #85, #37, #204 ) ;
#190 = ORIENTED_EDGE ( 'NONE', *, *, #129, .T. ) ;
#191 = ADVANCED_FACE ( 'NONE', ( #142 ), #296, .T. ) ;
#192 = EDGE_CURVE ( 'NONE', #80, #282, #70, .T. ) ;
#193 = PLANE ( 'NONE',  #74 ) ;
#194 = TOROIDAL_SURFACE ( 'NONE', #251, 2.949999999999999734, 0.2000000000000000111 ) ;
#195 = VERTEX_POINT ( 'NONE', #210 ) ;
#196 = CIRCLE ( 'NONE', #57, 2.949999999999999734 ) ;
#197 = VERTEX_POINT ( 'NONE', #252 ) ;
#198 = EDGE_CURVE ( 'NONE', #2, #182, #139, .T. ) ;
#199 = ADVANCED_FACE ( 'NONE', ( #274 ), #231, .T. ) ;
#200 = DATE_TIME_ROLE ( 'creation_date' ) ;
#201 = CARTESIAN_POINT ( 'NONE',  ( 0.000000000000000000, 0.000000000000000000, 3.000000000000000000 ) ) ;
#202 = APPROVAL_STATUS ( 'not_yet_approved' ) ;
#203 = CYLINDRICAL_SURFACE ( 'NONE', #258, 2.750000000000000000 ) ;
#204 = APPROVAL_ROLE ( '' ) ;
#205 = DIRECTION ( 'NONE',  ( -1.000000000000000000, 0.000000000000000000, 0.000000000000000000 ) ) ;
#206 = UNCERTAINTY_MEASURE_WITH_UNIT (LENGTH_MEASURE( 1.000000000000000082E-05 ), #105, 'distance_accuracy_value', 'NONE');
#207 = COORDINATED_UNIVERSAL_TIME_OFFSET ( 1, 0, .AHEAD. ) ;
#208 = VECTOR ( 'NONE', #90, 1000.000000000000000 ) ;
#209 = ORIENTED_EDGE ( 'NONE', *, *, #249, .T. ) ;
#210 = CARTESIAN_POINT ( 'NONE',  ( 2.949999999999999734, 0.000000000000000000, 2.999999999999990674 ) ) ;
#211 = CARTESIAN_POINT ( 'NONE',  ( 0.000000000000000000, 0.000000000000000000, 3.000000000000000000 ) ) ;
#212 = CARTESIAN_POINT ( 'NONE',  ( 5.000000000000000000, 6.123233995736766282E-16, 3.000000000000000000 ) ) ;
#213 = DIRECTION ( 'NONE',  ( 1.224646799147353207E-16, 1.000000000000000000, -0.000000000000000000 ) ) ;
#214 = AXIS2_PLACEMENT_3D ( 'NONE', #201, #127, #268 ) ;
#215 = DIRECTION ( 'NONE',  ( 0.000000000000000000, 0.000000000000000000, 1.000000000000000000 ) ) ;
#216 = DIRECTION ( 'NONE',  ( -0.000000000000000000, -0.000000000000000000, -1.000000000000000000 ) ) ;
#217 = ORIENTED_EDGE ( 'NONE', *, *, #86, .F. ) ;
#218 = ORIENTED_EDGE ( 'NONE', *, *, #86, .T. ) ;
#219 = EDGE_CURVE ( 'NONE', #148, #115, #114, .T. ) ;
#220 = DIRECTION ( 'NONE',  ( 1.000000000000000000, 0.000000000000000000, 0.000000000000000000 ) ) ;
#221 = CALENDAR_DATE ( 2022, 7, 7 ) ;
#222 = DIRECTION ( 'NONE',  ( 0.000000000000000000, 0.000000000000000000, -1.000000000000000000 ) ) ;
#223 = DATE_TIME_ROLE ( 'classification_date' ) ;
#224 = DIRECTION ( 'NONE',  ( 1.000000000000000000, 0.000000000000000000, 0.000000000000000000 ) ) ;
#225 = COORDINATED_UNIVERSAL_TIME_OFFSET ( 1, 0, .AHEAD. ) ;
#226 = APPROVAL_PERSON_ORGANIZATION ( #128, #106, #270 ) ;
#227 = DIRECTION ( 'NONE',  ( -1.000000000000000000, 0.000000000000000000, 0.000000000000000000 ) ) ;
#228 = ORIENTED_EDGE ( 'NONE', *, *, #192, .T. ) ;
#229 = CIRCLE ( 'NONE', #102, 2.949999999999999734 ) ;
#230 = DIRECTION ( 'NONE',  ( -1.000000000000000000, 1.224646799147353207E-16, 0.000000000000000000 ) ) ;
#231 = CYLINDRICAL_SURFACE ( 'NONE', #38, 5.000000000000000000 ) ;
#232 = EDGE_LOOP ( 'NONE', ( #124, #190 ) ) ;
#233 = CARTESIAN_POINT ( 'NONE',  ( 0.000000000000000000, 0.000000000000000000, 0.000000000000000000 ) ) ;
#234 = PRODUCT_DEFINITION_FORMATION_WITH_SPECIFIED_SOURCE ( 'LIBOVOLNÝ', '', #82, .NOT_KNOWN. ) ;
#235 = AXIS2_PLACEMENT_3D ( 'NONE', #247, #133, #34 ) ;
#236 = ORIENTED_EDGE ( 'NONE', *, *, #129, .F. ) ;
#237 = ORIENTED_EDGE ( 'NONE', *, *, #273, .T. ) ;
#238 = VECTOR ( 'NONE', #48, 1000.000000000000000 ) ;
#239 = LOCAL_TIME ( 12, 14, 23.00000000000000000, #83 ) ;
#240 = VECTOR ( 'NONE', #183, 1000.000000000000000 ) ;
#241 = CC_DESIGN_PERSON_AND_ORGANIZATION_ASSIGNMENT ( #12, #111, ( #121 ) ) ;
#242 = APPROVAL_STATUS ( 'not_yet_approved' ) ;
#243 = CALENDAR_DATE ( 2022, 7, 7 ) ;
#244 = DIRECTION ( 'NONE',  ( 1.000000000000000000, 0.000000000000000000, 0.000000000000000000 ) ) ;
#245 = DIRECTION ( 'NONE',  ( -1.000000000000000000, 0.000000000000000000, 0.000000000000000000 ) ) ;
#246 = PRODUCT_DEFINITION ( 'NEZNÁMÝ', '', #234, #135 ) ;
#247 = CARTESIAN_POINT ( 'NONE',  ( 0.000000000000000000, 0.000000000000000000, 0.000000000000000000 ) ) ;
#248 = EDGE_CURVE ( 'NONE', #2, #148, #264, .T. ) ;
#249 = EDGE_CURVE ( 'NONE', #115, #182, #153, .T. ) ;
#250 = CARTESIAN_POINT ( 'NONE',  ( 0.000000000000000000, 0.000000000000000000, 3.000000000000000000 ) ) ;
#251 = AXIS2_PLACEMENT_3D ( 'NONE', #291, #290, #162 ) ;
#252 = CARTESIAN_POINT ( 'NONE',  ( -2.750000000000000000, 0.000000000000000000, 1002.999999999999886 ) ) ;
#253 = ORIENTED_EDGE ( 'NONE', *, *, #91, .T. ) ;
#254 = CLOSED_SHELL ( 'NONE', ( #149, #138, #191, #199, #104, #41, #163, #3, #101 ) ) ;
#255 = FACE_OUTER_BOUND ( 'NONE', #307, .T. ) ;
#256 = CARTESIAN_POINT ( 'NONE',  ( 0.000000000000000000, 0.000000000000000000, 0.000000000000000000 ) ) ;
#257 = DIRECTION ( 'NONE',  ( 1.000000000000000000, 0.000000000000000000, -0.000000000000000000 ) ) ;
#258 = AXIS2_PLACEMENT_3D ( 'NONE', #160, #178, #245 ) ;
#259 = ORIENTED_EDGE ( 'NONE', *, *, #179, .F. ) ;
#260 = LOCAL_TIME ( 12, 14, 23.00000000000000000, #207 ) ;
#261 = ORIENTED_EDGE ( 'NONE', *, *, #192, .F. ) ;
#262 = CIRCLE ( 'NONE', #65, 2.750000000000000000 ) ;
#263 = LOCAL_TIME ( 12, 14, 23.00000000000000000, #159 ) ;
#264 = CIRCLE ( 'NONE', #6, 5.000000000000000000 ) ;
#265 = PERSON_AND_ORGANIZATION ( #27, #92 ) ;
#266 = VECTOR ( 'NONE', #72, 1000.000000000000000 ) ;
#267 = DATE_AND_TIME ( #221, #263 ) ;
#268 = DIRECTION ( 'NONE',  ( 1.000000000000000000, 0.000000000000000000, 0.000000000000000000 ) ) ;
#269 = CARTESIAN_POINT ( 'NONE',  ( 0.000000000000000000, 0.000000000000000000, 3.199999999999980638 ) ) ;
#270 = APPROVAL_ROLE ( '' ) ;
#271 = CYLINDRICAL_SURFACE ( 'NONE', #94, 2.750000000000000000 ) ;
#272 = PERSON_AND_ORGANIZATION_ROLE ( 'design_owner' ) ;
#273 = EDGE_CURVE ( 'NONE', #182, #115, #13, .T. ) ;
#274 = FACE_OUTER_BOUND ( 'NONE', #119, .T. ) ;
#275 = ORIENTED_EDGE ( 'NONE', *, *, #91, .F. ) ;
#276 = DIRECTION ( 'NONE',  ( 0.000000000000000000, 0.000000000000000000, 1.000000000000000000 ) ) ;
#277 = DIRECTION ( 'NONE',  ( 0.000000000000000000, 0.000000000000000000, 1.000000000000000000 ) ) ;
#278 = CARTESIAN_POINT ( 'NONE',  ( 2.750000000000000000, 3.367778697655221012E-16, 1002.999999999999886 ) ) ;
#279 = EDGE_LOOP ( 'NONE', ( #166, #50 ) ) ;
#280 = FACE_OUTER_BOUND ( 'NONE', #232, .T. ) ;
#281 = ORIENTED_EDGE ( 'NONE', *, *, #248, .F. ) ;
#282 = VERTEX_POINT ( 'NONE', #130 ) ;
#283 = CC_DESIGN_PERSON_AND_ORGANIZATION_ASSIGNMENT ( #154, #66, ( #234 ) ) ;
#284 = APPROVAL_DATE_TIME ( #10, #37 ) ;
#285 =( NAMED_UNIT ( * ) SI_UNIT ( $, .STERADIAN. ) SOLID_ANGLE_UNIT ( ) );
#286 = MECHANICAL_CONTEXT ( 'NONE', #49, 'mechanical' ) ;
#287 = AXIS2_PLACEMENT_3D ( 'NONE', #97, #213, #230 ) ;
#288 =( NAMED_UNIT ( * ) PLANE_ANGLE_UNIT ( ) SI_UNIT ( $, .RADIAN. ) );
#289 = SECURITY_CLASSIFICATION_LEVEL ( 'unclassified' ) ;
#290 = DIRECTION ( 'NONE',  ( 0.000000000000000000, 0.000000000000000000, 1.000000000000000000 ) ) ;
#291 = CARTESIAN_POINT ( 'NONE',  ( 0.000000000000000000, 0.000000000000000000, 3.199999999999980638 ) ) ;
#292 = AXIS2_PLACEMENT_3D ( 'NONE', #269, #40, #95 ) ;
#293 = CALENDAR_DATE ( 2022, 7, 7 ) ;
#294 = EDGE_CURVE ( 'NONE', #148, #2, #1, .T. ) ;
#295 = EDGE_LOOP ( 'NONE', ( #18, #103 ) ) ;
#296 = CYLINDRICAL_SURFACE ( 'NONE', #28, 5.000000000000000000 ) ;
#297 = CC_DESIGN_APPROVAL ( #60, ( #121 ) ) ;
#298 = DIRECTION ( 'NONE',  ( 1.000000000000000000, 0.000000000000000000, -0.000000000000000000 ) ) ;
#299 = DIRECTION ( 'NONE',  ( -0.000000000000000000, -0.000000000000000000, -1.000000000000000000 ) ) ;
#300 = DIRECTION ( 'NONE',  ( 0.000000000000000000, 0.000000000000000000, 1.000000000000000000 ) ) ;
#301 = AXIS2_PLACEMENT_3D ( 'NONE', #31, #59, #84 ) ;
#302 = CIRCLE ( 'NONE', #187, 2.750000000000000000 ) ;
#303 = CC_DESIGN_PERSON_AND_ORGANIZATION_ASSIGNMENT ( #265, #272, ( #82 ) ) ;
#304 = CARTESIAN_POINT ( 'NONE',  ( 0.000000000000000000, 0.000000000000000000, 3.000000000000000000 ) ) ;
#305 = CC_DESIGN_APPROVAL ( #37, ( #234 ) ) ;
#306 = DIRECTION ( 'NONE',  ( 1.000000000000000000, 0.000000000000000000, 0.000000000000000000 ) ) ;
#307 = EDGE_LOOP ( 'NONE', ( #51, #81 ) ) ;
ENDSEC;
END-ISO-10303-21;
