ISO-10303-21;
HEADER;
FILE_DESCRIPTION (( 'STEP AP203' ),
    '1' );
FILE_NAME ('69b6.STEP',
    '2023-02-12T11:57:54',
    ( '' ),
    ( '' ),
    'SwSTEP 2.0',
    'SolidWorks 2019',
    '' );
FILE_SCHEMA (( 'CONFIG_CONTROL_DESIGN' ));
ENDSEC;

DATA;
#1 = ORIENTED_EDGE ( 'NONE', *, *, #182, .T. ) ;
#2 = DIRECTION ( 'NONE',  ( -1.000000000000000000, 0.000000000000000000, 0.000000000000000000 ) ) ;
#3 = CARTESIAN_POINT ( 'NONE',  ( 0.000000000000000000, 0.000000000000000000, 0.000000000000000000 ) ) ;
#4 = DIRECTION ( 'NONE',  ( 1.000000000000000000, 0.000000000000000000, 0.000000000000000000 ) ) ;
#5 = FACE_OUTER_BOUND ( 'NONE', #173, .T. ) ;
#6 = FACE_OUTER_BOUND ( 'NONE', #82, .T. ) ;
#7 = CC_DESIGN_PERSON_AND_ORGANIZATION_ASSIGNMENT ( #206, #30, ( #199 ) ) ;
#8 = PERSON_AND_ORGANIZATION ( #159, #157 ) ;
#9 = DIRECTION ( 'NONE',  ( 1.000000000000000000, 0.000000000000000000, 0.000000000000000000 ) ) ;
#10 = EDGE_CURVE ( 'NONE', #75, #78, #46, .T. ) ;
#11 = SECURITY_CLASSIFICATION_LEVEL ( 'unclassified' ) ;
#12 = PERSON_AND_ORGANIZATION ( #159, #157 ) ;
#13 = DIRECTION ( 'NONE',  ( -0.000000000000000000, -0.000000000000000000, -1.000000000000000000 ) ) ;
#14 = PERSON_AND_ORGANIZATION ( #159, #157 ) ;
#15 = CARTESIAN_POINT ( 'NONE',  ( 6.000000000000000888, 7.347880794884120722E-16, 0.000000000000000000 ) ) ;
#16 = AXIS2_PLACEMENT_3D ( 'NONE', #176, #181, #99 ) ;
#17 = CALENDAR_DATE ( 2023, 12, 2 ) ;
#18 = LOCAL_TIME ( 12, 57, 54.00000000000000000, #66 ) ;
#19 = FACE_BOUND ( 'NONE', #64, .T. ) ;
#20 = ADVANCED_FACE ( 'NONE', ( #6 ), #84, .T. ) ;
#21 = CARTESIAN_POINT ( 'NONE',  ( 0.000000000000000000, 0.000000000000000000, 100.0000000000000000 ) ) ;
#22 = VERTEX_POINT ( 'NONE', #152 ) ;
#23 = CARTESIAN_POINT ( 'NONE',  ( 0.000000000000000000, 0.000000000000000000, 5.000000000000000000 ) ) ;
#24 = CARTESIAN_POINT ( 'NONE',  ( -3.750000000000000000, 0.000000000000000000, 100.0000000000000000 ) ) ;
#25 = PRODUCT_RELATED_PRODUCT_CATEGORY ( 'detail', '', ( #120 ) ) ;
#26 = CARTESIAN_POINT ( 'NONE',  ( 0.000000000000000000, 0.000000000000000000, 5.000000000000000000 ) ) ;
#27 = AXIS2_PLACEMENT_3D ( 'NONE', #200, #162, #145 ) ;
#28 = EDGE_LOOP ( 'NONE', ( #41, #241, #123, #54 ) ) ;
#29 = FACE_OUTER_BOUND ( 'NONE', #218, .T. ) ;
#30 = PERSON_AND_ORGANIZATION_ROLE ( 'creator' ) ;
#31 = AXIS2_PLACEMENT_3D ( 'NONE', #51, #109, #128 ) ;
#32 = DIRECTION ( 'NONE',  ( -1.000000000000000000, 0.000000000000000000, 0.000000000000000000 ) ) ;
#33 = CARTESIAN_POINT ( 'NONE',  ( 0.000000000000000000, 0.000000000000000000, 5.000000000000000000 ) ) ;
#34 = APPLICATION_CONTEXT ( 'configuration controlled 3d designs of mechanical parts and assemblies' ) ;
#35 = DATE_TIME_ROLE ( 'creation_date' ) ;
#36 = DIRECTION ( 'NONE',  ( 0.000000000000000000, 0.000000000000000000, 1.000000000000000000 ) ) ;
#37 = AXIS2_PLACEMENT_3D ( 'NONE', #250, #150, #188 ) ;
#38 = APPROVAL ( #130, 'NEURÈENÝ' ) ;
#39 = VERTEX_POINT ( 'NONE', #124 ) ;
#40 = VECTOR ( 'NONE', #155, 1000.000000000000000 ) ;
#41 = ORIENTED_EDGE ( 'NONE', *, *, #182, .F. ) ;
#42 = CIRCLE ( 'NONE', #37, 3.750000000000000000 ) ;
#43 = AXIS2_PLACEMENT_3D ( 'NONE', #21, #77, #2 ) ;
#44 = ORIENTED_EDGE ( 'NONE', *, *, #98, .F. ) ;
#45 = ADVANCED_FACE ( 'NONE', ( #231 ), #107, .T. ) ;
#46 = CIRCLE ( 'NONE', #223, 3.750000000000000000 ) ;
#47 = DESIGN_CONTEXT ( 'detailed design', #34, 'design' ) ;
#48 = PERSON_AND_ORGANIZATION_ROLE ( 'design_supplier' ) ;
#49 = COORDINATED_UNIVERSAL_TIME_OFFSET ( 1, 0, .AHEAD. ) ;
#50 = DATE_AND_TIME ( #227, #18 ) ;
#51 = CARTESIAN_POINT ( 'NONE',  ( 0.000000000000000000, 0.000000000000000000, 5.000000000000000000 ) ) ;
#52 = CYLINDRICAL_SURFACE ( 'NONE', #31, 6.000000000000000888 ) ;
#53 = APPROVAL_ROLE ( '' ) ;
#54 = ORIENTED_EDGE ( 'NONE', *, *, #229, .T. ) ;
#55 = ORIENTED_EDGE ( 'NONE', *, *, #98, .T. ) ;
#56 = FACE_OUTER_BOUND ( 'NONE', #28, .T. ) ;
#57 = FACE_OUTER_BOUND ( 'NONE', #117, .T. ) ;
#58 = VERTEX_POINT ( 'NONE', #248 ) ;
#59 = DIRECTION ( 'NONE',  ( 0.000000000000000000, 0.000000000000000000, 1.000000000000000000 ) ) ;
#60 = CIRCLE ( 'NONE', #207, 6.000000000000000888 ) ;
#61 = DIRECTION ( 'NONE',  ( 1.000000000000000000, 0.000000000000000000, 0.000000000000000000 ) ) ;
#62 = EDGE_LOOP ( 'NONE', ( #112, #237 ) ) ;
#63 = CARTESIAN_POINT ( 'NONE',  ( 0.000000000000000000, 0.000000000000000000, 5.000000000000000000 ) ) ;
#64 = EDGE_LOOP ( 'NONE', ( #196, #154 ) ) ;
#65 = LINE ( 'NONE', #96, #40 ) ;
#66 = COORDINATED_UNIVERSAL_TIME_OFFSET ( 1, 0, .AHEAD. ) ;
#67 = CARTESIAN_POINT ( 'NONE',  ( 0.000000000000000000, 0.000000000000000000, 5.000000000000000000 ) ) ;
#68 = UNCERTAINTY_MEASURE_WITH_UNIT (LENGTH_MEASURE( 1.000000000000000082E-05 ), #158, 'distance_accuracy_value', 'NONE');
#69 = DATE_AND_TIME ( #249, #166 ) ;
#70 = CARTESIAN_POINT ( 'NONE',  ( 6.000000000000000888, 7.347880794884120722E-16, 5.000000000000000000 ) ) ;
#71 = EDGE_CURVE ( 'NONE', #135, #39, #42, .T. ) ;
#72 = CIRCLE ( 'NONE', #209, 6.000000000000000888 ) ;
#73 = DATE_AND_TIME ( #106, #76 ) ;
#74 = PLANE ( 'NONE',  #132 ) ;
#75 = VERTEX_POINT ( 'NONE', #186 ) ;
#76 = LOCAL_TIME ( 12, 57, 54.00000000000000000, #49 ) ;
#77 = DIRECTION ( 'NONE',  ( -0.000000000000000000, -0.000000000000000000, -1.000000000000000000 ) ) ;
#78 = VERTEX_POINT ( 'NONE', #147 ) ;
#79 = DIRECTION ( 'NONE',  ( 0.000000000000000000, 0.000000000000000000, 1.000000000000000000 ) ) ;
#80 = ADVANCED_FACE ( 'NONE', ( #19, #214 ), #74, .T. ) ;
#81 = VECTOR ( 'NONE', #245, 1000.000000000000000 ) ;
#82 = EDGE_LOOP ( 'NONE', ( #44, #156, #116, #121 ) ) ;
#83 = CARTESIAN_POINT ( 'NONE',  ( 0.000000000000000000, 0.000000000000000000, 5.000000000000000000 ) ) ;
#84 = CYLINDRICAL_SURFACE ( 'NONE', #104, 6.000000000000000888 ) ;
#85 = DIRECTION ( 'NONE',  ( -0.000000000000000000, -0.000000000000000000, -1.000000000000000000 ) ) ;
#86 = CARTESIAN_POINT ( 'NONE',  ( -6.000000000000000888, 0.000000000000000000, 5.000000000000000000 ) ) ;
#87 = APPROVAL_PERSON_ORGANIZATION ( #14, #38, #53 ) ;
#88 = CARTESIAN_POINT ( 'NONE',  ( 0.000000000000000000, 0.000000000000000000, 100.0000000000000000 ) ) ;
#89 = APPROVAL_STATUS ( 'not_yet_approved' ) ;
#90 = LINE ( 'NONE', #70, #141 ) ;
#91 = DATE_AND_TIME ( #17, #225 ) ;
#92 = DIRECTION ( 'NONE',  ( 1.000000000000000000, 0.000000000000000000, 0.000000000000000000 ) ) ;
#93 = CARTESIAN_POINT ( 'NONE',  ( 3.750000000000000000, 4.592425496802573972E-16, 100.0000000000000000 ) ) ;
#94 = ADVANCED_FACE ( 'NONE', ( #29 ), #52, .T. ) ;
#95 = VECTOR ( 'NONE', #85, 1000.000000000000000 ) ;
#96 = CARTESIAN_POINT ( 'NONE',  ( 3.750000000000000000, 4.592425496802573972E-16, 100.0000000000000000 ) ) ;
#97 = APPROVAL ( #89, 'NEURÈENÝ' ) ;
#98 = EDGE_CURVE ( 'NONE', #58, #143, #90, .T. ) ;
#99 = DIRECTION ( 'NONE',  ( 1.000000000000000000, 0.000000000000000000, -0.000000000000000000 ) ) ;
#100 = AXIS2_PLACEMENT_3D ( 'NONE', #129, #103, #212 ) ;
#101 = DIRECTION ( 'NONE',  ( 1.000000000000000000, 0.000000000000000000, 0.000000000000000000 ) ) ;
#102 = PERSON_AND_ORGANIZATION_ROLE ( 'creator' ) ;
#103 = DIRECTION ( 'NONE',  ( 0.000000000000000000, 0.000000000000000000, 1.000000000000000000 ) ) ;
#104 = AXIS2_PLACEMENT_3D ( 'NONE', #63, #149, #32 ) ;
#105 = PERSON_AND_ORGANIZATION ( #159, #157 ) ;
#106 = CALENDAR_DATE ( 2023, 12, 2 ) ;
#107 = CYLINDRICAL_SURFACE ( 'NONE', #244, 3.750000000000000000 ) ;
#108 = SHAPE_DEFINITION_REPRESENTATION ( #119, #208 ) ;
#109 = DIRECTION ( 'NONE',  ( -0.000000000000000000, -0.000000000000000000, -1.000000000000000000 ) ) ;
#110 = APPROVAL_DATE_TIME ( #191, #140 ) ;
#111 = DIRECTION ( 'NONE',  ( 1.000000000000000000, 0.000000000000000000, 0.000000000000000000 ) ) ;
#112 = ORIENTED_EDGE ( 'NONE', *, *, #215, .T. ) ;
#113 = CIRCLE ( 'NONE', #133, 3.750000000000000000 ) ;
#114 = CC_DESIGN_APPROVAL ( #140, ( #199 ) ) ;
#115 = CC_DESIGN_PERSON_AND_ORGANIZATION_ASSIGNMENT ( #167, #246, ( #179 ) ) ;
#116 = ORIENTED_EDGE ( 'NONE', *, *, #177, .T. ) ;
#117 = EDGE_LOOP ( 'NONE', ( #174, #160 ) ) ;
#118 = APPLICATION_CONTEXT ( 'configuration controlled 3d designs of mechanical parts and assemblies' ) ;
#119 = PRODUCT_DEFINITION_SHAPE ( 'NONE', 'NONE',  #193 ) ;
#120 = PRODUCT ( '69b6', '69b6', '', ( #146 ) ) ;
#121 = ORIENTED_EDGE ( 'NONE', *, *, #151, .T. ) ;
#122 = EDGE_CURVE ( 'NONE', #143, #22, #219, .T. ) ;
#123 = ORIENTED_EDGE ( 'NONE', *, *, #226, .T. ) ;
#124 = CARTESIAN_POINT ( 'NONE',  ( -3.750000000000000000, 0.000000000000000000, 100.0000000000000000 ) ) ;
#125 = APPROVAL_DATE_TIME ( #73, #38 ) ;
#126 = DIRECTION ( 'NONE',  ( -1.000000000000000000, 0.000000000000000000, 0.000000000000000000 ) ) ;
#127 = DATE_TIME_ROLE ( 'classification_date' ) ;
#128 = DIRECTION ( 'NONE',  ( -1.000000000000000000, 0.000000000000000000, 0.000000000000000000 ) ) ;
#129 = CARTESIAN_POINT ( 'NONE',  ( 0.000000000000000000, 0.000000000000000000, 0.000000000000000000 ) ) ;
#130 = APPROVAL_STATUS ( 'not_yet_approved' ) ;
#131 = MANIFOLD_SOLID_BREP ( 'Pøidat vysunutím3', #194 ) ;
#132 = AXIS2_PLACEMENT_3D ( 'NONE', #67, #228, #205 ) ;
#133 = AXIS2_PLACEMENT_3D ( 'NONE', #253, #36, #111 ) ;
#134 = EDGE_CURVE ( 'NONE', #58, #216, #172, .T. ) ;
#135 = VERTEX_POINT ( 'NONE', #93 ) ;
#136 = CYLINDRICAL_SURFACE ( 'NONE', #43, 3.750000000000000000 ) ;
#137 = AXIS2_PLACEMENT_3D ( 'NONE', #33, #190, #9 ) ;
#138 = CC_DESIGN_APPROVAL ( #97, ( #179 ) ) ;
#139 = PLANE ( 'NONE',  #27 ) ;
#140 = APPROVAL ( #251, 'NEURÈENÝ' ) ;
#141 = VECTOR ( 'NONE', #165, 1000.000000000000000 ) ;
#142 = LINE ( 'NONE', #24, #95 ) ;
#143 = VERTEX_POINT ( 'NONE', #15 ) ;
#144 = APPLICATION_PROTOCOL_DEFINITION ( 'international standard', 'config_control_design', 1994, #118 ) ;
#145 = DIRECTION ( 'NONE',  ( 1.000000000000000000, 0.000000000000000000, -0.000000000000000000 ) ) ;
#146 = MECHANICAL_CONTEXT ( 'NONE', #118, 'mechanical' ) ;
#147 = CARTESIAN_POINT ( 'NONE',  ( -3.750000000000000000, 0.000000000000000000, 5.000000000000000000 ) ) ;
#148 = PERSON_AND_ORGANIZATION ( #159, #157 ) ;
#149 = DIRECTION ( 'NONE',  ( -0.000000000000000000, -0.000000000000000000, -1.000000000000000000 ) ) ;
#150 = DIRECTION ( 'NONE',  ( 0.000000000000000000, 0.000000000000000000, 1.000000000000000000 ) ) ;
#151 = EDGE_CURVE ( 'NONE', #22, #143, #60, .T. ) ;
#152 = CARTESIAN_POINT ( 'NONE',  ( -6.000000000000000888, 0.000000000000000000, 0.000000000000000000 ) ) ;
#153 = EDGE_CURVE ( 'NONE', #39, #135, #113, .T. ) ;
#154 = ORIENTED_EDGE ( 'NONE', *, *, #10, .F. ) ;
#155 = DIRECTION ( 'NONE',  ( -0.000000000000000000, -0.000000000000000000, -1.000000000000000000 ) ) ;
#156 = ORIENTED_EDGE ( 'NONE', *, *, #215, .F. ) ;
#157 = ORGANIZATION ( 'NEURÈENÝ', 'NEURÈENÝ', '' ) ;
#158 =( LENGTH_UNIT ( ) NAMED_UNIT ( * ) SI_UNIT ( .MILLI., .METRE. ) );
#159 = PERSON ( 'NEURÈENÝ', 'NEURÈENÝ', 'NEURÈENÝ', ('NEURÈENÝ'), ('NEURÈENÝ'), ('NEURÈENÝ') ) ;
#160 = ORIENTED_EDGE ( 'NONE', *, *, #122, .F. ) ;
#161 = AXIS2_PLACEMENT_3D ( 'NONE', #83, #243, #240 ) ;
#162 = DIRECTION ( 'NONE',  ( 0.000000000000000000, 0.000000000000000000, 1.000000000000000000 ) ) ;
#163 = CC_DESIGN_PERSON_AND_ORGANIZATION_ASSIGNMENT ( #8, #232, ( #120 ) ) ;
#164 = APPLICATION_PROTOCOL_DEFINITION ( 'international standard', 'config_control_design', 1994, #34 ) ;
#165 = DIRECTION ( 'NONE',  ( -0.000000000000000000, -0.000000000000000000, -1.000000000000000000 ) ) ;
#166 = LOCAL_TIME ( 12, 57, 54.00000000000000000, #168 ) ;
#167 = PERSON_AND_ORGANIZATION ( #159, #157 ) ;
#168 = COORDINATED_UNIVERSAL_TIME_OFFSET ( 1, 0, .AHEAD. ) ;
#169 = PERSON_AND_ORGANIZATION ( #159, #157 ) ;
#170 = LINE ( 'NONE', #86, #81 ) ;
#171 = ORIENTED_EDGE ( 'NONE', *, *, #71, .T. ) ;
#172 = CIRCLE ( 'NONE', #137, 6.000000000000000888 ) ;
#173 = EDGE_LOOP ( 'NONE', ( #220, #171 ) ) ;
#174 = ORIENTED_EDGE ( 'NONE', *, *, #151, .F. ) ;
#175 =( NAMED_UNIT ( * ) SI_UNIT ( $, .STERADIAN. ) SOLID_ANGLE_UNIT ( ) );
#176 = CARTESIAN_POINT ( 'NONE',  ( 0.000000000000000000, 0.000000000000000000, 100.0000000000000000 ) ) ;
#177 = EDGE_CURVE ( 'NONE', #216, #22, #170, .T. ) ;
#178 = EDGE_LOOP ( 'NONE', ( #202, #1, #235, #238 ) ) ;
#179 = SECURITY_CLASSIFICATION ( '', '', #11 ) ;
#180 = PLANE ( 'NONE',  #16 ) ;
#181 = DIRECTION ( 'NONE',  ( 0.000000000000000000, 0.000000000000000000, 1.000000000000000000 ) ) ;
#182 = EDGE_CURVE ( 'NONE', #135, #75, #65, .T. ) ;
#183 = COORDINATED_UNIVERSAL_TIME_OFFSET ( 1, 0, .AHEAD. ) ;
#184 = CARTESIAN_POINT ( 'NONE',  ( 0.000000000000000000, 0.000000000000000000, 0.000000000000000000 ) ) ;
#185 = CALENDAR_DATE ( 2023, 12, 2 ) ;
#186 = CARTESIAN_POINT ( 'NONE',  ( 3.750000000000000000, 4.592425496802573972E-16, 5.000000000000000000 ) ) ;
#187 = APPROVAL_ROLE ( '' ) ;
#188 = DIRECTION ( 'NONE',  ( 1.000000000000000000, 0.000000000000000000, 0.000000000000000000 ) ) ;
#189 = ORIENTED_EDGE ( 'NONE', *, *, #177, .F. ) ;
#190 = DIRECTION ( 'NONE',  ( 0.000000000000000000, 0.000000000000000000, 1.000000000000000000 ) ) ;
#191 = DATE_AND_TIME ( #185, #234 ) ;
#192 =( GEOMETRIC_REPRESENTATION_CONTEXT ( 3 ) GLOBAL_UNCERTAINTY_ASSIGNED_CONTEXT ( ( #68 ) ) GLOBAL_UNIT_ASSIGNED_CONTEXT ( ( #158, #198, #175 ) ) REPRESENTATION_CONTEXT ( 'NONE', 'WORKASPACE' ) );
#193 = PRODUCT_DEFINITION ( 'NEZNÁMÝ', '', #199, #47 ) ;
#194 = CLOSED_SHELL ( 'NONE', ( #45, #94, #20, #80, #255, #197, #210 ) ) ;
#195 = ORIENTED_EDGE ( 'NONE', *, *, #122, .T. ) ;
#196 = ORIENTED_EDGE ( 'NONE', *, *, #229, .F. ) ;
#197 = ADVANCED_FACE ( 'NONE', ( #56 ), #136, .T. ) ;
#198 =( NAMED_UNIT ( * ) PLANE_ANGLE_UNIT ( ) SI_UNIT ( $, .RADIAN. ) );
#199 = PRODUCT_DEFINITION_FORMATION_WITH_SPECIFIED_SOURCE ( 'LIBOVOLNÝ', '', #120, .NOT_KNOWN. ) ;
#200 = CARTESIAN_POINT ( 'NONE',  ( 0.000000000000000000, 0.000000000000000000, 0.000000000000000000 ) ) ;
#201 = CC_DESIGN_DATE_AND_TIME_ASSIGNMENT ( #91, #35, ( #193 ) ) ;
#202 = ORIENTED_EDGE ( 'NONE', *, *, #71, .F. ) ;
#203 = AXIS2_PLACEMENT_3D ( 'NONE', #3, #79, #61 ) ;
#204 = CC_DESIGN_DATE_AND_TIME_ASSIGNMENT ( #50, #127, ( #179 ) ) ;
#205 = DIRECTION ( 'NONE',  ( 1.000000000000000000, 0.000000000000000000, -0.000000000000000000 ) ) ;
#206 = PERSON_AND_ORGANIZATION ( #159, #157 ) ;
#207 = AXIS2_PLACEMENT_3D ( 'NONE', #184, #233, #92 ) ;
#208 = ADVANCED_BREP_SHAPE_REPRESENTATION ( '69b6', ( #131, #203 ), #192 ) ;
#209 = AXIS2_PLACEMENT_3D ( 'NONE', #23, #222, #4 ) ;
#210 = ADVANCED_FACE ( 'NONE', ( #5 ), #180, .T. ) ;
#211 = APPROVAL_ROLE ( '' ) ;
#212 = DIRECTION ( 'NONE',  ( 1.000000000000000000, 0.000000000000000000, 0.000000000000000000 ) ) ;
#213 = COORDINATED_UNIVERSAL_TIME_OFFSET ( 1, 0, .AHEAD. ) ;
#214 = FACE_OUTER_BOUND ( 'NONE', #62, .T. ) ;
#215 = EDGE_CURVE ( 'NONE', #216, #58, #72, .T. ) ;
#216 = VERTEX_POINT ( 'NONE', #221 ) ;
#217 = ORIENTED_EDGE ( 'NONE', *, *, #134, .F. ) ;
#218 = EDGE_LOOP ( 'NONE', ( #217, #55, #195, #189 ) ) ;
#219 = CIRCLE ( 'NONE', #100, 6.000000000000000888 ) ;
#220 = ORIENTED_EDGE ( 'NONE', *, *, #153, .T. ) ;
#221 = CARTESIAN_POINT ( 'NONE',  ( -6.000000000000000888, 0.000000000000000000, 5.000000000000000000 ) ) ;
#222 = DIRECTION ( 'NONE',  ( 0.000000000000000000, 0.000000000000000000, 1.000000000000000000 ) ) ;
#223 = AXIS2_PLACEMENT_3D ( 'NONE', #26, #59, #101 ) ;
#224 = CC_DESIGN_APPROVAL ( #38, ( #193 ) ) ;
#225 = LOCAL_TIME ( 12, 57, 54.00000000000000000, #213 ) ;
#226 = EDGE_CURVE ( 'NONE', #39, #78, #142, .T. ) ;
#227 = CALENDAR_DATE ( 2023, 12, 2 ) ;
#228 = DIRECTION ( 'NONE',  ( 0.000000000000000000, 0.000000000000000000, 1.000000000000000000 ) ) ;
#229 = EDGE_CURVE ( 'NONE', #78, #75, #242, .T. ) ;
#230 = APPROVAL_DATE_TIME ( #69, #97 ) ;
#231 = FACE_OUTER_BOUND ( 'NONE', #178, .T. ) ;
#232 = PERSON_AND_ORGANIZATION_ROLE ( 'design_owner' ) ;
#233 = DIRECTION ( 'NONE',  ( 0.000000000000000000, 0.000000000000000000, 1.000000000000000000 ) ) ;
#234 = LOCAL_TIME ( 12, 57, 54.00000000000000000, #183 ) ;
#235 = ORIENTED_EDGE ( 'NONE', *, *, #10, .T. ) ;
#236 = CC_DESIGN_PERSON_AND_ORGANIZATION_ASSIGNMENT ( #148, #102, ( #193 ) ) ;
#237 = ORIENTED_EDGE ( 'NONE', *, *, #134, .T. ) ;
#238 = ORIENTED_EDGE ( 'NONE', *, *, #226, .F. ) ;
#239 = CC_DESIGN_SECURITY_CLASSIFICATION ( #179, ( #199 ) ) ;
#240 = DIRECTION ( 'NONE',  ( 1.000000000000000000, 0.000000000000000000, 0.000000000000000000 ) ) ;
#241 = ORIENTED_EDGE ( 'NONE', *, *, #153, .F. ) ;
#242 = CIRCLE ( 'NONE', #161, 3.750000000000000000 ) ;
#243 = DIRECTION ( 'NONE',  ( 0.000000000000000000, 0.000000000000000000, 1.000000000000000000 ) ) ;
#244 = AXIS2_PLACEMENT_3D ( 'NONE', #88, #13, #126 ) ;
#245 = DIRECTION ( 'NONE',  ( -0.000000000000000000, -0.000000000000000000, -1.000000000000000000 ) ) ;
#246 = PERSON_AND_ORGANIZATION_ROLE ( 'classification_officer' ) ;
#247 = CC_DESIGN_PERSON_AND_ORGANIZATION_ASSIGNMENT ( #105, #48, ( #199 ) ) ;
#248 = CARTESIAN_POINT ( 'NONE',  ( 6.000000000000000888, 7.347880794884120722E-16, 5.000000000000000000 ) ) ;
#249 = CALENDAR_DATE ( 2023, 12, 2 ) ;
#250 = CARTESIAN_POINT ( 'NONE',  ( 0.000000000000000000, 0.000000000000000000, 100.0000000000000000 ) ) ;
#251 = APPROVAL_STATUS ( 'not_yet_approved' ) ;
#252 = APPROVAL_PERSON_ORGANIZATION ( #12, #97, #211 ) ;
#253 = CARTESIAN_POINT ( 'NONE',  ( 0.000000000000000000, 0.000000000000000000, 100.0000000000000000 ) ) ;
#254 = APPROVAL_PERSON_ORGANIZATION ( #169, #140, #187 ) ;
#255 = ADVANCED_FACE ( 'NONE', ( #57 ), #139, .F. ) ;
ENDSEC;
END-ISO-10303-21;
