ISO-10303-21;
HEADER;
FILE_DESCRIPTION (( 'STEP AP203' ),
    '1' );
FILE_NAME ('8bdd.STEP',
    '2022-07-07T09:57:15',
    ( '' ),
    ( '' ),
    'SwSTEP 2.0',
    'SolidWorks 2019',
    '' );
FILE_SCHEMA (( 'CONFIG_CONTROL_DESIGN' ));
ENDSEC;

DATA;
#1 = CC_DESIGN_SECURITY_CLASSIFICATION ( #103, ( #134 ) ) ;
#2 = CARTESIAN_POINT ( 'NONE',  ( 7.000000000000000000, 8.572527594031473190E-16, 5.000000000000000000 ) ) ;
#3 = ORIENTED_EDGE ( 'NONE', *, *, #112, .F. ) ;
#4 = DIRECTION ( 'NONE',  ( 1.000000000000000000, 0.000000000000000000, 0.000000000000000000 ) ) ;
#5 = CIRCLE ( 'NONE', #260, 7.000000000000000000 ) ;
#6 = PLANE ( 'NONE',  #303 ) ;
#7 = DIRECTION ( 'NONE',  ( 0.000000000000000000, 0.000000000000000000, 1.000000000000000000 ) ) ;
#8 = CARTESIAN_POINT ( 'NONE',  ( 0.000000000000000000, 0.000000000000000000, 5.199999999999996625 ) ) ;
#9 = CARTESIAN_POINT ( 'NONE',  ( 0.000000000000000000, 0.000000000000000000, 130.0000000000000000 ) ) ;
#10 = AXIS2_PLACEMENT_3D ( 'NONE', #293, #75, #294 ) ;
#11 = PERSON_AND_ORGANIZATION ( #99, #191 ) ;
#12 = CALENDAR_DATE ( 2022, 7, 7 ) ;
#13 = AXIS2_PLACEMENT_3D ( 'NONE', #239, #77, #93 ) ;
#14 = ORIENTED_EDGE ( 'NONE', *, *, #278, .F. ) ;
#15 = DATE_AND_TIME ( #274, #233 ) ;
#16 = VERTEX_POINT ( 'NONE', #113 ) ;
#17 = VERTEX_POINT ( 'NONE', #41 ) ;
#18 = ORIENTED_EDGE ( 'NONE', *, *, #278, .T. ) ;
#19 = DIRECTION ( 'NONE',  ( 1.000000000000000000, 0.000000000000000000, -0.000000000000000000 ) ) ;
#20 = EDGE_LOOP ( 'NONE', ( #154, #23, #86, #253 ) ) ;
#21 = DIRECTION ( 'NONE',  ( -1.000000000000000000, 1.224646799147353454E-16, 0.000000000000000000 ) ) ;
#22 = EDGE_CURVE ( 'NONE', #203, #16, #215, .T. ) ;
#23 = ORIENTED_EDGE ( 'NONE', *, *, #283, .F. ) ;
#24 = AXIS2_PLACEMENT_3D ( 'NONE', #305, #87, #307 ) ;
#25 = DIRECTION ( 'NONE',  ( 1.000000000000000000, 0.000000000000000000, -0.000000000000000000 ) ) ;
#26 = AXIS2_PLACEMENT_3D ( 'NONE', #193, #291, #74 ) ;
#27 = CYLINDRICAL_SURFACE ( 'NONE', #26, 7.000000000000000000 ) ;
#28 = MANIFOLD_SOLID_BREP ( 'Zaoblit1', #258 ) ;
#29 = DIRECTION ( 'NONE',  ( 0.000000000000000000, 0.000000000000000000, 1.000000000000000000 ) ) ;
#30 = DIRECTION ( 'NONE',  ( -0.000000000000000000, -0.000000000000000000, -1.000000000000000000 ) ) ;
#31 = CARTESIAN_POINT ( 'NONE',  ( 7.000000000000000000, 8.572527594031473190E-16, 5.000000000000000000 ) ) ;
#32 = APPLICATION_PROTOCOL_DEFINITION ( 'international standard', 'config_control_design', 1994, #210 ) ;
#33 = ADVANCED_FACE ( 'NONE', ( #259 ), #189, .F. ) ;
#34 = PERSON_AND_ORGANIZATION ( #99, #191 ) ;
#35 = ORIENTED_EDGE ( 'NONE', *, *, #96, .T. ) ;
#36 = CIRCLE ( 'NONE', #296, 7.000000000000000000 ) ;
#37 = ADVANCED_FACE ( 'NONE', ( #64, #136 ), #230, .T. ) ;
#38 = EDGE_LOOP ( 'NONE', ( #234, #302 ) ) ;
#39 = CC_DESIGN_APPROVAL ( #80, ( #134 ) ) ;
#40 = DATE_AND_TIME ( #12, #200 ) ;
#41 = CARTESIAN_POINT ( 'NONE',  ( 4.700000000000000178, 0.000000000000000000, 4.999999999999998224 ) ) ;
#42 = CARTESIAN_POINT ( 'NONE',  ( 4.500000000000000888, 5.510910596163089556E-16, 130.0000000000000000 ) ) ;
#43 = FACE_OUTER_BOUND ( 'NONE', #177, .T. ) ;
#44 = DIRECTION ( 'NONE',  ( 0.000000000000000000, 0.000000000000000000, 1.000000000000000000 ) ) ;
#45 = DIRECTION ( 'NONE',  ( -1.000000000000000000, 0.000000000000000000, 0.000000000000000000 ) ) ;
#46 = VECTOR ( 'NONE', #187, 1000.000000000000000 ) ;
#47 = PLANE ( 'NONE',  #297 ) ;
#48 = PRODUCT_DEFINITION_SHAPE ( 'NONE', 'NONE',  #63 ) ;
#49 = DIRECTION ( 'NONE',  ( 1.000000000000000000, 0.000000000000000000, 0.000000000000000000 ) ) ;
#50 = APPROVAL ( #279, 'NEURÈENÝ' ) ;
#51 = CARTESIAN_POINT ( 'NONE',  ( -7.000000000000000000, 0.000000000000000000, 5.000000000000000000 ) ) ;
#52 = CARTESIAN_POINT ( 'NONE',  ( 0.000000000000000000, 0.000000000000000000, 0.000000000000000000 ) ) ;
#53 = CIRCLE ( 'NONE', #145, 4.700000000000000178 ) ;
#54 = AXIS2_PLACEMENT_3D ( 'NONE', #263, #142, #49 ) ;
#55 = COORDINATED_UNIVERSAL_TIME_OFFSET ( 1, 0, .AHEAD. ) ;
#56 = CARTESIAN_POINT ( 'NONE',  ( 0.000000000000000000, 0.000000000000000000, 0.000000000000000000 ) ) ;
#57 = MECHANICAL_CONTEXT ( 'NONE', #127, 'mechanical' ) ;
#58 = ORIENTED_EDGE ( 'NONE', *, *, #221, .F. ) ;
#59 = COORDINATED_UNIVERSAL_TIME_OFFSET ( 1, 0, .AHEAD. ) ;
#60 = CIRCLE ( 'NONE', #232, 4.500000000000000888 ) ;
#61 = APPROVAL_ROLE ( '' ) ;
#62 = DIRECTION ( 'NONE',  ( 1.000000000000000000, 0.000000000000000000, 0.000000000000000000 ) ) ;
#63 = PRODUCT_DEFINITION ( 'NEZNÁMÝ', '', #134, #238 ) ;
#64 = FACE_BOUND ( 'NONE', #106, .T. ) ;
#65 = CC_DESIGN_APPROVAL ( #50, ( #103 ) ) ;
#66 = APPROVAL_DATE_TIME ( #40, #50 ) ;
#67 = EDGE_CURVE ( 'NONE', #250, #205, #36, .T. ) ;
#68 = CARTESIAN_POINT ( 'NONE',  ( 0.000000000000000000, 0.000000000000000000, 5.000000000000000000 ) ) ;
#69 = ORIENTED_EDGE ( 'NONE', *, *, #182, .T. ) ;
#70 = EDGE_LOOP ( 'NONE', ( #255, #89 ) ) ;
#71 = LOCAL_TIME ( 11, 57, 15.00000000000000000, #126 ) ;
#72 = CYLINDRICAL_SURFACE ( 'NONE', #10, 4.500000000000000888 ) ;
#73 = DIRECTION ( 'NONE',  ( 0.000000000000000000, 0.000000000000000000, 1.000000000000000000 ) ) ;
#74 = DIRECTION ( 'NONE',  ( -1.000000000000000000, 0.000000000000000000, 0.000000000000000000 ) ) ;
#75 = DIRECTION ( 'NONE',  ( -0.000000000000000000, -0.000000000000000000, -1.000000000000000000 ) ) ;
#76 = EDGE_CURVE ( 'NONE', #17, #16, #53, .T. ) ;
#77 = DIRECTION ( 'NONE',  ( 0.000000000000000000, -1.000000000000000000, 0.000000000000000000 ) ) ;
#78 =( LENGTH_UNIT ( ) NAMED_UNIT ( * ) SI_UNIT ( .MILLI., .METRE. ) );
#79 = EDGE_LOOP ( 'NONE', ( #280, #208, #287, #235 ) ) ;
#80 = APPROVAL ( #124, 'NEURÈENÝ' ) ;
#81 = CIRCLE ( 'NONE', #13, 0.1999999999999996503 ) ;
#82 = DIRECTION ( 'NONE',  ( 1.000000000000000000, 0.000000000000000000, 0.000000000000000000 ) ) ;
#83 = PERSON_AND_ORGANIZATION_ROLE ( 'design_supplier' ) ;
#84 = EDGE_CURVE ( 'NONE', #250, #110, #161, .T. ) ;
#85 = ORIENTED_EDGE ( 'NONE', *, *, #202, .F. ) ;
#86 = ORIENTED_EDGE ( 'NONE', *, *, #221, .T. ) ;
#87 = DIRECTION ( 'NONE',  ( 0.000000000000000000, 0.000000000000000000, 1.000000000000000000 ) ) ;
#88 = CARTESIAN_POINT ( 'NONE',  ( -4.700000000000000178, 5.755839955992559655E-16, 5.199999999999996625 ) ) ;
#89 = ORIENTED_EDGE ( 'NONE', *, *, #90, .T. ) ;
#90 = EDGE_CURVE ( 'NONE', #205, #250, #257, .T. ) ;
#91 = CARTESIAN_POINT ( 'NONE',  ( 0.000000000000000000, 0.000000000000000000, 5.000000000000000000 ) ) ;
#92 = DIRECTION ( 'NONE',  ( -1.000000000000000000, 0.000000000000000000, 0.000000000000000000 ) ) ;
#93 = DIRECTION ( 'NONE',  ( 0.000000000000000000, 0.000000000000000000, -1.000000000000000000 ) ) ;
#94 = CC_DESIGN_PERSON_AND_ORGANIZATION_ASSIGNMENT ( #11, #298, ( #134 ) ) ;
#95 = CARTESIAN_POINT ( 'NONE',  ( 0.000000000000000000, 0.000000000000000000, 0.000000000000000000 ) ) ;
#96 = EDGE_CURVE ( 'NONE', #172, #149, #256, .T. ) ;
#97 = DIRECTION ( 'NONE',  ( 0.000000000000000000, 0.000000000000000000, 1.000000000000000000 ) ) ;
#98 = CYLINDRICAL_SURFACE ( 'NONE', #271, 7.000000000000000000 ) ;
#99 = PERSON ( 'NEURÈENÝ', 'NEURÈENÝ', 'NEURÈENÝ', ('NEURÈENÝ'), ('NEURÈENÝ'), ('NEURÈENÝ') ) ;
#100 = DATE_AND_TIME ( #244, #165 ) ;
#101 = CC_DESIGN_DATE_AND_TIME_ASSIGNMENT ( #15, #197, ( #103 ) ) ;
#102 = CIRCLE ( 'NONE', #275, 4.700000000000000178 ) ;
#103 = SECURITY_CLASSIFICATION ( '', '', #301 ) ;
#104 = COORDINATED_UNIVERSAL_TIME_OFFSET ( 1, 0, .AHEAD. ) ;
#105 = CC_DESIGN_PERSON_AND_ORGANIZATION_ASSIGNMENT ( #178, #270, ( #63 ) ) ;
#106 = EDGE_LOOP ( 'NONE', ( #135, #133 ) ) ;
#107 = PERSON_AND_ORGANIZATION ( #99, #191 ) ;
#108 = ORIENTED_EDGE ( 'NONE', *, *, #273, .F. ) ;
#109 = EDGE_LOOP ( 'NONE', ( #160, #284, #69, #227 ) ) ;
#110 = VERTEX_POINT ( 'NONE', #281 ) ;
#111 = DIRECTION ( 'NONE',  ( 1.000000000000000000, 0.000000000000000000, 0.000000000000000000 ) ) ;
#112 = EDGE_CURVE ( 'NONE', #16, #17, #102, .T. ) ;
#113 = CARTESIAN_POINT ( 'NONE',  ( -4.700000000000000178, 5.755839955992559655E-16, 4.999999999999998224 ) ) ;
#114 = CC_DESIGN_PERSON_AND_ORGANIZATION_ASSIGNMENT ( #248, #83, ( #134 ) ) ;
#115 = CARTESIAN_POINT ( 'NONE',  ( 0.000000000000000000, 0.000000000000000000, 5.199999999999996625 ) ) ;
#116 = AXIS2_PLACEMENT_3D ( 'NONE', #115, #44, #282 ) ;
#117 = DIRECTION ( 'NONE',  ( -0.000000000000000000, -0.000000000000000000, -1.000000000000000000 ) ) ;
#118 = CC_DESIGN_PERSON_AND_ORGANIZATION_ASSIGNMENT ( #204, #276, ( #240 ) ) ;
#119 = DIRECTION ( 'NONE',  ( 0.000000000000000000, 0.000000000000000000, 1.000000000000000000 ) ) ;
#120 = DIRECTION ( 'NONE',  ( 0.000000000000000000, 0.000000000000000000, 1.000000000000000000 ) ) ;
#121 = DIRECTION ( 'NONE',  ( 1.000000000000000000, 0.000000000000000000, 0.000000000000000000 ) ) ;
#122 = VECTOR ( 'NONE', #30, 1000.000000000000000 ) ;
#123 = APPROVAL_PERSON_ORGANIZATION ( #107, #50, #61 ) ;
#124 = APPROVAL_STATUS ( 'not_yet_approved' ) ;
#125 = PERSON_AND_ORGANIZATION ( #99, #191 ) ;
#126 = COORDINATED_UNIVERSAL_TIME_OFFSET ( 1, 0, .AHEAD. ) ;
#127 = APPLICATION_CONTEXT ( 'configuration controlled 3d designs of mechanical parts and assemblies' ) ;
#128 = CC_DESIGN_PERSON_AND_ORGANIZATION_ASSIGNMENT ( #125, #132, ( #103 ) ) ;
#129 = AXIS2_PLACEMENT_3D ( 'NONE', #8, #97, #216 ) ;
#130 =( NAMED_UNIT ( * ) SI_UNIT ( $, .STERADIAN. ) SOLID_ANGLE_UNIT ( ) );
#131 = EDGE_CURVE ( 'NONE', #205, #272, #156, .T. ) ;
#132 = PERSON_AND_ORGANIZATION_ROLE ( 'classification_officer' ) ;
#133 = ORIENTED_EDGE ( 'NONE', *, *, #112, .T. ) ;
#134 = PRODUCT_DEFINITION_FORMATION_WITH_SPECIFIED_SOURCE ( 'LIBOVOLNÝ', '', #240, .NOT_KNOWN. ) ;
#135 = ORIENTED_EDGE ( 'NONE', *, *, #76, .T. ) ;
#136 = FACE_OUTER_BOUND ( 'NONE', #70, .T. ) ;
#137 = CARTESIAN_POINT ( 'NONE',  ( 0.000000000000000000, 0.000000000000000000, 5.000000000000000000 ) ) ;
#138 = ORIENTED_EDGE ( 'NONE', *, *, #22, .F. ) ;
#139 = CARTESIAN_POINT ( 'NONE',  ( -7.000000000000000000, 0.000000000000000000, 5.000000000000000000 ) ) ;
#140 = CARTESIAN_POINT ( 'NONE',  ( -4.500000000000000888, 0.000000000000000000, 5.199999999999996625 ) ) ;
#141 = CYLINDRICAL_SURFACE ( 'NONE', #195, 4.500000000000000888 ) ;
#142 = DIRECTION ( 'NONE',  ( 0.000000000000000000, 0.000000000000000000, 1.000000000000000000 ) ) ;
#143 = ADVANCED_FACE ( 'NONE', ( #43 ), #252, .F. ) ;
#144 = FACE_OUTER_BOUND ( 'NONE', #109, .T. ) ;
#145 = AXIS2_PLACEMENT_3D ( 'NONE', #163, #164, #188 ) ;
#146 = DIRECTION ( 'NONE',  ( 1.000000000000000000, 0.000000000000000000, 0.000000000000000000 ) ) ;
#147 =( NAMED_UNIT ( * ) PLANE_ANGLE_UNIT ( ) SI_UNIT ( $, .RADIAN. ) );
#148 = CC_DESIGN_DATE_AND_TIME_ASSIGNMENT ( #150, #243, ( #63 ) ) ;
#149 = VERTEX_POINT ( 'NONE', #285 ) ;
#150 = DATE_AND_TIME ( #224, #71 ) ;
#151 = EDGE_CURVE ( 'NONE', #172, #261, #157, .T. ) ;
#152 = CC_DESIGN_APPROVAL ( #162, ( #63 ) ) ;
#153 = APPROVAL_DATE_TIME ( #201, #80 ) ;
#154 = ORIENTED_EDGE ( 'NONE', *, *, #96, .F. ) ;
#155 = VECTOR ( 'NONE', #209, 1000.000000000000000 ) ;
#156 = LINE ( 'NONE', #2, #46 ) ;
#157 = CIRCLE ( 'NONE', #54, 4.500000000000000888 ) ;
#158 = CIRCLE ( 'NONE', #129, 4.500000000000000888 ) ;
#159 = APPROVAL_PERSON_ORGANIZATION ( #34, #80, #223 ) ;
#160 = ORIENTED_EDGE ( 'NONE', *, *, #90, .F. ) ;
#161 = LINE ( 'NONE', #139, #155 ) ;
#162 = APPROVAL ( #199, 'NEURÈENÝ' ) ;
#163 = CARTESIAN_POINT ( 'NONE',  ( 0.000000000000000000, 0.000000000000000000, 5.000000000000000000 ) ) ;
#164 = DIRECTION ( 'NONE',  ( -0.000000000000000000, -0.000000000000000000, -1.000000000000000000 ) ) ;
#165 = LOCAL_TIME ( 11, 57, 15.00000000000000000, #104 ) ;
#166 = DIRECTION ( 'NONE',  ( 0.000000000000000000, 0.000000000000000000, 1.000000000000000000 ) ) ;
#167 = UNCERTAINTY_MEASURE_WITH_UNIT (LENGTH_MEASURE( 1.000000000000000082E-05 ), #78, 'distance_accuracy_value', 'NONE');
#168 = CARTESIAN_POINT ( 'NONE',  ( 7.000000000000000000, 8.572527594031473190E-16, 0.000000000000000000 ) ) ;
#169 = CARTESIAN_POINT ( 'NONE',  ( 0.000000000000000000, 0.000000000000000000, 5.199999999999996625 ) ) ;
#170 = ADVANCED_FACE ( 'NONE', ( #196 ), #47, .F. ) ;
#171 = CARTESIAN_POINT ( 'NONE',  ( 0.000000000000000000, 0.000000000000000000, 5.000000000000000000 ) ) ;
#172 = VERTEX_POINT ( 'NONE', #268 ) ;
#173 = APPROVAL_PERSON_ORGANIZATION ( #295, #162, #174 ) ;
#174 = APPROVAL_ROLE ( '' ) ;
#175 = EDGE_CURVE ( 'NONE', #110, #272, #292, .T. ) ;
#176 = APPLICATION_PROTOCOL_DEFINITION ( 'international standard', 'config_control_design', 1994, #127 ) ;
#177 = EDGE_LOOP ( 'NONE', ( #108, #246, #212, #14 ) ) ;
#178 = PERSON_AND_ORGANIZATION ( #99, #191 ) ;
#179 = AXIS2_PLACEMENT_3D ( 'NONE', #88, #183, #21 ) ;
#180 = EDGE_LOOP ( 'NONE', ( #226, #229 ) ) ;
#181 = DIRECTION ( 'NONE',  ( -0.000000000000000000, -0.000000000000000000, -1.000000000000000000 ) ) ;
#182 = EDGE_CURVE ( 'NONE', #272, #110, #5, .T. ) ;
#183 = DIRECTION ( 'NONE',  ( 1.224646799147353207E-16, 1.000000000000000000, -0.000000000000000000 ) ) ;
#184 = SHAPE_DEFINITION_REPRESENTATION ( #48, #213 ) ;
#185 = DIRECTION ( 'NONE',  ( 0.000000000000000000, 0.000000000000000000, 1.000000000000000000 ) ) ;
#186 = ADVANCED_FACE ( 'NONE', ( #190 ), #141, .T. ) ;
#187 = DIRECTION ( 'NONE',  ( -0.000000000000000000, -0.000000000000000000, -1.000000000000000000 ) ) ;
#188 = DIRECTION ( 'NONE',  ( 1.000000000000000000, 0.000000000000000000, 0.000000000000000000 ) ) ;
#189 = TOROIDAL_SURFACE ( 'NONE', #116, 4.700000000000000178, 0.2000000000000000111 ) ;
#190 = FACE_OUTER_BOUND ( 'NONE', #20, .T. ) ;
#191 = ORGANIZATION ( 'NEURÈENÝ', 'NEURÈENÝ', '' ) ;
#192 = CARTESIAN_POINT ( 'NONE',  ( 0.000000000000000000, 0.000000000000000000, 130.0000000000000000 ) ) ;
#193 = CARTESIAN_POINT ( 'NONE',  ( 0.000000000000000000, 0.000000000000000000, 5.000000000000000000 ) ) ;
#194 = DIRECTION ( 'NONE',  ( 1.000000000000000000, 0.000000000000000000, 0.000000000000000000 ) ) ;
#195 = AXIS2_PLACEMENT_3D ( 'NONE', #265, #117, #45 ) ;
#196 = FACE_OUTER_BOUND ( 'NONE', #180, .T. ) ;
#197 = DATE_TIME_ROLE ( 'classification_date' ) ;
#198 = VECTOR ( 'NONE', #181, 1000.000000000000000 ) ;
#199 = APPROVAL_STATUS ( 'not_yet_approved' ) ;
#200 = LOCAL_TIME ( 11, 57, 15.00000000000000000, #55 ) ;
#201 = DATE_AND_TIME ( #245, #304 ) ;
#202 = EDGE_CURVE ( 'NONE', #149, #203, #60, .T. ) ;
#203 = VERTEX_POINT ( 'NONE', #140 ) ;
#204 = PERSON_AND_ORGANIZATION ( #99, #191 ) ;
#205 = VERTEX_POINT ( 'NONE', #31 ) ;
#206 =( GEOMETRIC_REPRESENTATION_CONTEXT ( 3 ) GLOBAL_UNCERTAINTY_ASSIGNED_CONTEXT ( ( #167 ) ) GLOBAL_UNIT_ASSIGNED_CONTEXT ( ( #78, #147, #130 ) ) REPRESENTATION_CONTEXT ( 'NONE', 'WORKASPACE' ) );
#207 = EDGE_LOOP ( 'NONE', ( #138, #85, #18, #3 ) ) ;
#208 = ORIENTED_EDGE ( 'NONE', *, *, #67, .F. ) ;
#209 = DIRECTION ( 'NONE',  ( -0.000000000000000000, -0.000000000000000000, -1.000000000000000000 ) ) ;
#210 = APPLICATION_CONTEXT ( 'configuration controlled 3d designs of mechanical parts and assemblies' ) ;
#211 = DIRECTION ( 'NONE',  ( 0.000000000000000000, 0.000000000000000000, 1.000000000000000000 ) ) ;
#212 = ORIENTED_EDGE ( 'NONE', *, *, #76, .F. ) ;
#213 = ADVANCED_BREP_SHAPE_REPRESENTATION ( '8bdd', ( #28, #254 ), #206 ) ;
#214 = FACE_OUTER_BOUND ( 'NONE', #306, .T. ) ;
#215 = CIRCLE ( 'NONE', #179, 0.1999999999999996503 ) ;
#216 = DIRECTION ( 'NONE',  ( 1.000000000000000000, 0.000000000000000000, 0.000000000000000000 ) ) ;
#217 = CARTESIAN_POINT ( 'NONE',  ( 0.000000000000000000, 0.000000000000000000, 5.199999999999996625 ) ) ;
#218 = CARTESIAN_POINT ( 'NONE',  ( -4.500000000000000888, 0.000000000000000000, 130.0000000000000000 ) ) ;
#219 = AXIS2_PLACEMENT_3D ( 'NONE', #91, #185, #19 ) ;
#220 = LINE ( 'NONE', #218, #122 ) ;
#221 = EDGE_CURVE ( 'NONE', #261, #203, #220, .T. ) ;
#222 = DIRECTION ( 'NONE',  ( 0.000000000000000000, 0.000000000000000000, 1.000000000000000000 ) ) ;
#223 = APPROVAL_ROLE ( '' ) ;
#224 = CALENDAR_DATE ( 2022, 7, 7 ) ;
#225 = COORDINATED_UNIVERSAL_TIME_OFFSET ( 1, 0, .AHEAD. ) ;
#226 = ORIENTED_EDGE ( 'NONE', *, *, #175, .F. ) ;
#227 = ORIENTED_EDGE ( 'NONE', *, *, #84, .F. ) ;
#228 = AXIS2_PLACEMENT_3D ( 'NONE', #262, #166, #121 ) ;
#229 = ORIENTED_EDGE ( 'NONE', *, *, #182, .F. ) ;
#230 = PLANE ( 'NONE',  #219 ) ;
#231 = DIRECTION ( 'NONE',  ( -0.000000000000000000, -0.000000000000000000, -1.000000000000000000 ) ) ;
#232 = AXIS2_PLACEMENT_3D ( 'NONE', #169, #237, #146 ) ;
#233 = LOCAL_TIME ( 11, 57, 15.00000000000000000, #225 ) ;
#234 = ORIENTED_EDGE ( 'NONE', *, *, #283, .T. ) ;
#235 = ORIENTED_EDGE ( 'NONE', *, *, #175, .T. ) ;
#236 = DIRECTION ( 'NONE',  ( 1.000000000000000000, 0.000000000000000000, -0.000000000000000000 ) ) ;
#237 = DIRECTION ( 'NONE',  ( 0.000000000000000000, 0.000000000000000000, 1.000000000000000000 ) ) ;
#238 = DESIGN_CONTEXT ( 'detailed design', #210, 'design' ) ;
#239 = CARTESIAN_POINT ( 'NONE',  ( 4.700000000000000178, 0.000000000000000000, 5.199999999999996625 ) ) ;
#240 = PRODUCT ( '8bdd', '8bdd', '', ( #57 ) ) ;
#241 = FACE_OUTER_BOUND ( 'NONE', #79, .T. ) ;
#242 = CARTESIAN_POINT ( 'NONE',  ( -4.500000000000000888, 0.000000000000000000, 130.0000000000000000 ) ) ;
#243 = DATE_TIME_ROLE ( 'creation_date' ) ;
#244 = CALENDAR_DATE ( 2022, 7, 7 ) ;
#245 = CALENDAR_DATE ( 2022, 7, 7 ) ;
#246 = ORIENTED_EDGE ( 'NONE', *, *, #22, .T. ) ;
#247 = AXIS2_PLACEMENT_3D ( 'NONE', #192, #29, #194 ) ;
#248 = PERSON_AND_ORGANIZATION ( #99, #191 ) ;
#249 = APPROVAL_DATE_TIME ( #100, #162 ) ;
#250 = VERTEX_POINT ( 'NONE', #51 ) ;
#251 = ADVANCED_FACE ( 'NONE', ( #289 ), #6, .T. ) ;
#252 = TOROIDAL_SURFACE ( 'NONE', #264, 4.700000000000000178, 0.2000000000000000111 ) ;
#253 = ORIENTED_EDGE ( 'NONE', *, *, #273, .T. ) ;
#254 = AXIS2_PLACEMENT_3D ( 'NONE', #56, #222, #82 ) ;
#255 = ORIENTED_EDGE ( 'NONE', *, *, #67, .T. ) ;
#256 = LINE ( 'NONE', #42, #198 ) ;
#257 = CIRCLE ( 'NONE', #24, 7.000000000000000000 ) ;
#258 = CLOSED_SHELL ( 'NONE', ( #143, #290, #267, #299, #37, #170, #186, #251, #33 ) ) ;
#259 = FACE_OUTER_BOUND ( 'NONE', #207, .T. ) ;
#260 = AXIS2_PLACEMENT_3D ( 'NONE', #52, #73, #4 ) ;
#261 = VERTEX_POINT ( 'NONE', #242 ) ;
#262 = CARTESIAN_POINT ( 'NONE',  ( 0.000000000000000000, 0.000000000000000000, 0.000000000000000000 ) ) ;
#263 = CARTESIAN_POINT ( 'NONE',  ( 0.000000000000000000, 0.000000000000000000, 130.0000000000000000 ) ) ;
#264 = AXIS2_PLACEMENT_3D ( 'NONE', #217, #119, #288 ) ;
#265 = CARTESIAN_POINT ( 'NONE',  ( 0.000000000000000000, 0.000000000000000000, 130.0000000000000000 ) ) ;
#266 = CIRCLE ( 'NONE', #247, 4.500000000000000888 ) ;
#267 = ADVANCED_FACE ( 'NONE', ( #144 ), #27, .T. ) ;
#268 = CARTESIAN_POINT ( 'NONE',  ( 4.500000000000000888, 5.510910596163089556E-16, 130.0000000000000000 ) ) ;
#269 = DIRECTION ( 'NONE',  ( -0.000000000000000000, -0.000000000000000000, -1.000000000000000000 ) ) ;
#270 = PERSON_AND_ORGANIZATION_ROLE ( 'creator' ) ;
#271 = AXIS2_PLACEMENT_3D ( 'NONE', #171, #269, #92 ) ;
#272 = VERTEX_POINT ( 'NONE', #168 ) ;
#273 = EDGE_CURVE ( 'NONE', #203, #149, #158, .T. ) ;
#274 = CALENDAR_DATE ( 2022, 7, 7 ) ;
#275 = AXIS2_PLACEMENT_3D ( 'NONE', #137, #231, #62 ) ;
#276 = PERSON_AND_ORGANIZATION_ROLE ( 'design_owner' ) ;
#277 = ORIENTED_EDGE ( 'NONE', *, *, #202, .T. ) ;
#278 = EDGE_CURVE ( 'NONE', #149, #17, #81, .T. ) ;
#279 = APPROVAL_STATUS ( 'not_yet_approved' ) ;
#280 = ORIENTED_EDGE ( 'NONE', *, *, #131, .F. ) ;
#281 = CARTESIAN_POINT ( 'NONE',  ( -7.000000000000000000, 0.000000000000000000, 0.000000000000000000 ) ) ;
#282 = DIRECTION ( 'NONE',  ( 1.000000000000000000, 0.000000000000000000, 0.000000000000000000 ) ) ;
#283 = EDGE_CURVE ( 'NONE', #261, #172, #266, .T. ) ;
#284 = ORIENTED_EDGE ( 'NONE', *, *, #131, .T. ) ;
#285 = CARTESIAN_POINT ( 'NONE',  ( 4.500000000000000888, 5.510910596163089556E-16, 5.199999999999996625 ) ) ;
#286 = PRODUCT_RELATED_PRODUCT_CATEGORY ( 'detail', '', ( #240 ) ) ;
#287 = ORIENTED_EDGE ( 'NONE', *, *, #84, .T. ) ;
#288 = DIRECTION ( 'NONE',  ( 1.000000000000000000, 0.000000000000000000, 0.000000000000000000 ) ) ;
#289 = FACE_OUTER_BOUND ( 'NONE', #38, .T. ) ;
#290 = ADVANCED_FACE ( 'NONE', ( #214 ), #72, .T. ) ;
#291 = DIRECTION ( 'NONE',  ( -0.000000000000000000, -0.000000000000000000, -1.000000000000000000 ) ) ;
#292 = CIRCLE ( 'NONE', #228, 7.000000000000000000 ) ;
#293 = CARTESIAN_POINT ( 'NONE',  ( 0.000000000000000000, 0.000000000000000000, 130.0000000000000000 ) ) ;
#294 = DIRECTION ( 'NONE',  ( -1.000000000000000000, 0.000000000000000000, 0.000000000000000000 ) ) ;
#295 = PERSON_AND_ORGANIZATION ( #99, #191 ) ;
#296 = AXIS2_PLACEMENT_3D ( 'NONE', #68, #211, #111 ) ;
#297 = AXIS2_PLACEMENT_3D ( 'NONE', #95, #120, #236 ) ;
#298 = PERSON_AND_ORGANIZATION_ROLE ( 'creator' ) ;
#299 = ADVANCED_FACE ( 'NONE', ( #241 ), #98, .T. ) ;
#300 = ORIENTED_EDGE ( 'NONE', *, *, #151, .F. ) ;
#301 = SECURITY_CLASSIFICATION_LEVEL ( 'unclassified' ) ;
#302 = ORIENTED_EDGE ( 'NONE', *, *, #151, .T. ) ;
#303 = AXIS2_PLACEMENT_3D ( 'NONE', #9, #7, #25 ) ;
#304 = LOCAL_TIME ( 11, 57, 15.00000000000000000, #59 ) ;
#305 = CARTESIAN_POINT ( 'NONE',  ( 0.000000000000000000, 0.000000000000000000, 5.000000000000000000 ) ) ;
#306 = EDGE_LOOP ( 'NONE', ( #300, #35, #277, #58 ) ) ;
#307 = DIRECTION ( 'NONE',  ( 1.000000000000000000, 0.000000000000000000, 0.000000000000000000 ) ) ;
ENDSEC;
END-ISO-10303-21;
