ISO-10303-21;
HEADER;
FILE_DESCRIPTION (( 'STEP AP203' ),
    '1' );
FILE_NAME ('0ff7.STEP',
    '2022-07-07T10:25:21',
    ( '' ),
    ( '' ),
    'SwSTEP 2.0',
    'SolidWorks 2019',
    '' );
FILE_SCHEMA (( 'CONFIG_CONTROL_DESIGN' ));
ENDSEC;

DATA;
#1 = CC_DESIGN_PERSON_AND_ORGANIZATION_ASSIGNMENT ( #2, #195, ( #156 ) ) ;
#2 = PERSON_AND_ORGANIZATION ( #3, #198 ) ;
#3 = PERSON ( 'NEURÈENÝ', 'NEURÈENÝ', 'NEURÈENÝ', ('NEURÈENÝ'), ('NEURÈENÝ'), ('NEURÈENÝ') ) ;
#4 = DATE_TIME_ROLE ( 'creation_date' ) ;
#5 = PERSON_AND_ORGANIZATION ( #3, #198 ) ;
#6 = EDGE_CURVE ( 'NONE', #178, #63, #99, .T. ) ;
#7 = VERTEX_POINT ( 'NONE', #298 ) ;
#8 = CC_DESIGN_APPROVAL ( #218, ( #53 ) ) ;
#9 = ORIENTED_EDGE ( 'NONE', *, *, #46, .F. ) ;
#10 = DIRECTION ( 'NONE',  ( 0.000000000000000000, 0.000000000000000000, 1.000000000000000000 ) ) ;
#11 = VERTEX_POINT ( 'NONE', #87 ) ;
#12 = ORIENTED_EDGE ( 'NONE', *, *, #213, .T. ) ;
#13 = DIRECTION ( 'NONE',  ( 1.000000000000000000, 0.000000000000000000, 0.000000000000000000 ) ) ;
#14 = ORIENTED_EDGE ( 'NONE', *, *, #46, .T. ) ;
#15 = VERTEX_POINT ( 'NONE', #90 ) ;
#16 = DIRECTION ( 'NONE',  ( 0.000000000000000000, 0.000000000000000000, 1.000000000000000000 ) ) ;
#17 = ADVANCED_FACE ( 'NONE', ( #245 ), #166, .F. ) ;
#18 = DIRECTION ( 'NONE',  ( 0.000000000000000000, 0.000000000000000000, 1.000000000000000000 ) ) ;
#19 = CARTESIAN_POINT ( 'NONE',  ( -4.000000000000000000, 0.000000000000000000, 0.000000000000000000 ) ) ;
#20 = APPROVAL ( #217, 'NEURÈENÝ' ) ;
#21 = CARTESIAN_POINT ( 'NONE',  ( 0.000000000000000000, 0.000000000000000000, 0.000000000000000000 ) ) ;
#22 = DIRECTION ( 'NONE',  ( -1.000000000000000000, 0.000000000000000000, 0.000000000000000000 ) ) ;
#23 = VECTOR ( 'NONE', #57, 1000.000000000000000 ) ;
#24 = LOCAL_TIME ( 12, 25, 21.00000000000000000, #55 ) ;
#25 = PLANE ( 'NONE',  #131 ) ;
#26 = DIRECTION ( 'NONE',  ( 0.000000000000000000, 0.000000000000000000, 1.000000000000000000 ) ) ;
#27 = EDGE_CURVE ( 'NONE', #250, #15, #305, .T. ) ;
#28 = COORDINATED_UNIVERSAL_TIME_OFFSET ( 1, 0, .AHEAD. ) ;
#29 = APPROVAL_STATUS ( 'not_yet_approved' ) ;
#30 = AXIS2_PLACEMENT_3D ( 'NONE', #286, #123, #122 ) ;
#31 = SECURITY_CLASSIFICATION_LEVEL ( 'unclassified' ) ;
#32 = PERSON_AND_ORGANIZATION ( #3, #198 ) ;
#33 = PLANE ( 'NONE',  #285 ) ;
#34 = EDGE_LOOP ( 'NONE', ( #273, #155, #89, #12 ) ) ;
#35 = CARTESIAN_POINT ( 'NONE',  ( -4.000000000000000000, 0.000000000000000000, 3.000000000000000000 ) ) ;
#36 = ORIENTED_EDGE ( 'NONE', *, *, #259, .T. ) ;
#37 = ORIENTED_EDGE ( 'NONE', *, *, #149, .T. ) ;
#38 = DIRECTION ( 'NONE',  ( 0.000000000000000000, 0.000000000000000000, 1.000000000000000000 ) ) ;
#39 = TOROIDAL_SURFACE ( 'NONE', #74, 2.200000000000000178, 0.2000000000000000111 ) ;
#40 = CIRCLE ( 'NONE', #261, 4.000000000000000000 ) ;
#41 = EDGE_LOOP ( 'NONE', ( #36, #181 ) ) ;
#42 = LINE ( 'NONE', #35, #84 ) ;
#43 =( LENGTH_UNIT ( ) NAMED_UNIT ( * ) SI_UNIT ( .MILLI., .METRE. ) );
#44 = DIRECTION ( 'NONE',  ( 1.000000000000000000, 0.000000000000000000, 0.000000000000000000 ) ) ;
#45 = CC_DESIGN_APPROVAL ( #113, ( #184 ) ) ;
#46 = EDGE_CURVE ( 'NONE', #83, #15, #293, .T. ) ;
#47 = DIRECTION ( 'NONE',  ( 0.000000000000000000, 0.000000000000000000, 1.000000000000000000 ) ) ;
#48 = FACE_OUTER_BOUND ( 'NONE', #292, .T. ) ;
#49 = CARTESIAN_POINT ( 'NONE',  ( 0.000000000000000000, 0.000000000000000000, 3.000000000000000000 ) ) ;
#50 = AXIS2_PLACEMENT_3D ( 'NONE', #49, #143, #160 ) ;
#51 = DATE_AND_TIME ( #52, #142 ) ;
#52 = CALENDAR_DATE ( 2022, 7, 7 ) ;
#53 = SECURITY_CLASSIFICATION ( '', '', #31 ) ;
#54 = PRODUCT ( '0ff7', '0ff7', '', ( #105 ) ) ;
#55 = COORDINATED_UNIVERSAL_TIME_OFFSET ( 1, 0, .AHEAD. ) ;
#56 = ORIENTED_EDGE ( 'NONE', *, *, #235, .F. ) ;
#57 = DIRECTION ( 'NONE',  ( -0.000000000000000000, -0.000000000000000000, -1.000000000000000000 ) ) ;
#58 = CIRCLE ( 'NONE', #106, 2.000000000000000000 ) ;
#59 = ORIENTED_EDGE ( 'NONE', *, *, #207, .T. ) ;
#60 = CARTESIAN_POINT ( 'NONE',  ( 2.000000000000000000, 2.449293598294706414E-16, 633.0000000000000000 ) ) ;
#61 = EDGE_LOOP ( 'NONE', ( #297, #81, #152, #135 ) ) ;
#62 = EDGE_LOOP ( 'NONE', ( #202, #37 ) ) ;
#63 = VERTEX_POINT ( 'NONE', #65 ) ;
#64 = ADVANCED_FACE ( 'NONE', ( #86 ), #33, .F. ) ;
#65 = CARTESIAN_POINT ( 'NONE',  ( 4.000000000000000000, 4.898587196589412829E-16, 3.000000000000000000 ) ) ;
#66 = CARTESIAN_POINT ( 'NONE',  ( 4.000000000000000000, 4.898587196589412829E-16, 0.000000000000000000 ) ) ;
#67 = DIRECTION ( 'NONE',  ( -0.000000000000000000, -0.000000000000000000, -1.000000000000000000 ) ) ;
#68 = CARTESIAN_POINT ( 'NONE',  ( 0.000000000000000000, 0.000000000000000000, 3.000000000000000000 ) ) ;
#69 = AXIS2_PLACEMENT_3D ( 'NONE', #179, #183, #13 ) ;
#70 = AXIS2_PLACEMENT_3D ( 'NONE', #229, #306, #186 ) ;
#71 =( NAMED_UNIT ( * ) PLANE_ANGLE_UNIT ( ) SI_UNIT ( $, .RADIAN. ) );
#72 = FACE_BOUND ( 'NONE', #41, .T. ) ;
#73 = EDGE_CURVE ( 'NONE', #109, #250, #117, .T. ) ;
#74 = AXIS2_PLACEMENT_3D ( 'NONE', #256, #10, #274 ) ;
#75 =( GEOMETRIC_REPRESENTATION_CONTEXT ( 3 ) GLOBAL_UNCERTAINTY_ASSIGNED_CONTEXT ( ( #197 ) ) GLOBAL_UNIT_ASSIGNED_CONTEXT ( ( #43, #71, #219 ) ) REPRESENTATION_CONTEXT ( 'NONE', 'WORKASPACE' ) );
#76 = PERSON_AND_ORGANIZATION ( #3, #198 ) ;
#77 = COORDINATED_UNIVERSAL_TIME_OFFSET ( 1, 0, .AHEAD. ) ;
#78 = PERSON_AND_ORGANIZATION_ROLE ( 'classification_officer' ) ;
#79 = DATE_AND_TIME ( #147, #112 ) ;
#80 = AXIS2_PLACEMENT_3D ( 'NONE', #68, #164, #22 ) ;
#81 = ORIENTED_EDGE ( 'NONE', *, *, #27, .F. ) ;
#82 = DIRECTION ( 'NONE',  ( 0.000000000000000000, 0.000000000000000000, 1.000000000000000000 ) ) ;
#83 = VERTEX_POINT ( 'NONE', #279 ) ;
#84 = VECTOR ( 'NONE', #132, 1000.000000000000000 ) ;
#85 = AXIS2_PLACEMENT_3D ( 'NONE', #94, #67, #44 ) ;
#86 = FACE_OUTER_BOUND ( 'NONE', #115, .T. ) ;
#87 = CARTESIAN_POINT ( 'NONE',  ( -2.200000000000000178, 2.694222958124177006E-16, 2.999999999999990674 ) ) ;
#88 = ORIENTED_EDGE ( 'NONE', *, *, #96, .F. ) ;
#89 = ORIENTED_EDGE ( 'NONE', *, *, #96, .T. ) ;
#90 = CARTESIAN_POINT ( 'NONE',  ( -2.000000000000000000, 0.000000000000000000, 3.199999999999980638 ) ) ;
#91 = CLOSED_SHELL ( 'NONE', ( #134, #204, #187, #295, #190, #64, #251, #267, #17 ) ) ;
#92 = DIRECTION ( 'NONE',  ( -0.000000000000000000, -0.000000000000000000, -1.000000000000000000 ) ) ;
#93 = DIRECTION ( 'NONE',  ( -1.000000000000000000, 0.000000000000000000, 0.000000000000000000 ) ) ;
#94 = CARTESIAN_POINT ( 'NONE',  ( 0.000000000000000000, 0.000000000000000000, 3.000000000000000000 ) ) ;
#95 = CARTESIAN_POINT ( 'NONE',  ( -4.000000000000000000, 0.000000000000000000, 3.000000000000000000 ) ) ;
#96 = EDGE_CURVE ( 'NONE', #178, #294, #42, .T. ) ;
#97 = FACE_OUTER_BOUND ( 'NONE', #227, .T. ) ;
#98 = APPROVAL_STATUS ( 'not_yet_approved' ) ;
#99 = CIRCLE ( 'NONE', #69, 4.000000000000000000 ) ;
#100 = LOCAL_TIME ( 12, 25, 21.00000000000000000, #239 ) ;
#101 = DATE_TIME_ROLE ( 'classification_date' ) ;
#102 = EDGE_CURVE ( 'NONE', #63, #180, #157, .T. ) ;
#103 = PERSON_AND_ORGANIZATION ( #3, #198 ) ;
#104 = PERSON_AND_ORGANIZATION_ROLE ( 'design_owner' ) ;
#105 = MECHANICAL_CONTEXT ( 'NONE', #199, 'mechanical' ) ;
#106 = AXIS2_PLACEMENT_3D ( 'NONE', #230, #47, #212 ) ;
#107 = ORIENTED_EDGE ( 'NONE', *, *, #259, .F. ) ;
#108 = CARTESIAN_POINT ( 'NONE',  ( 0.000000000000000000, 0.000000000000000000, 3.199999999999980638 ) ) ;
#109 = VERTEX_POINT ( 'NONE', #222 ) ;
#110 = ORIENTED_EDGE ( 'NONE', *, *, #73, .F. ) ;
#111 = VECTOR ( 'NONE', #176, 1000.000000000000000 ) ;
#112 = LOCAL_TIME ( 12, 25, 21.00000000000000000, #173 ) ;
#113 = APPROVAL ( #29, 'NEURÈENÝ' ) ;
#114 = ORIENTED_EDGE ( 'NONE', *, *, #238, .F. ) ;
#115 = EDGE_LOOP ( 'NONE', ( #281, #114 ) ) ;
#116 = CARTESIAN_POINT ( 'NONE',  ( 0.000000000000000000, 0.000000000000000000, 3.000000000000000000 ) ) ;
#117 = LINE ( 'NONE', #60, #170 ) ;
#118 = DIRECTION ( 'NONE',  ( 1.000000000000000000, 0.000000000000000000, 0.000000000000000000 ) ) ;
#119 = AXIS2_PLACEMENT_3D ( 'NONE', #133, #224, #118 ) ;
#120 = APPROVAL_PERSON_ORGANIZATION ( #214, #20, #265 ) ;
#121 = CC_DESIGN_PERSON_AND_ORGANIZATION_ASSIGNMENT ( #76, #168, ( #156 ) ) ;
#122 = DIRECTION ( 'NONE',  ( -1.000000000000000000, 0.000000000000000000, 0.000000000000000000 ) ) ;
#123 = DIRECTION ( 'NONE',  ( -0.000000000000000000, -0.000000000000000000, -1.000000000000000000 ) ) ;
#124 = AXIS2_PLACEMENT_3D ( 'NONE', #236, #26, #291 ) ;
#125 = DIRECTION ( 'NONE',  ( -0.000000000000000000, -0.000000000000000000, -1.000000000000000000 ) ) ;
#126 = CC_DESIGN_DATE_AND_TIME_ASSIGNMENT ( #307, #101, ( #53 ) ) ;
#127 = AXIS2_PLACEMENT_3D ( 'NONE', #116, #151, #139 ) ;
#128 = CC_DESIGN_SECURITY_CLASSIFICATION ( #53, ( #156 ) ) ;
#129 = DATE_AND_TIME ( #290, #100 ) ;
#130 = APPLICATION_PROTOCOL_DEFINITION ( 'international standard', 'config_control_design', 1994, #169 ) ;
#131 = AXIS2_PLACEMENT_3D ( 'NONE', #284, #303, #163 ) ;
#132 = DIRECTION ( 'NONE',  ( -0.000000000000000000, -0.000000000000000000, -1.000000000000000000 ) ) ;
#133 = CARTESIAN_POINT ( 'NONE',  ( 0.000000000000000000, 0.000000000000000000, 633.0000000000000000 ) ) ;
#134 = ADVANCED_FACE ( 'NONE', ( #226 ), #39, .F. ) ;
#135 = ORIENTED_EDGE ( 'NONE', *, *, #246, .F. ) ;
#136 = AXIS2_PLACEMENT_3D ( 'NONE', #252, #38, #296 ) ;
#137 = ORIENTED_EDGE ( 'NONE', *, *, #172, .F. ) ;
#138 = EDGE_LOOP ( 'NONE', ( #276, #59, #107, #56 ) ) ;
#139 = DIRECTION ( 'NONE',  ( 1.000000000000000000, 0.000000000000000000, 0.000000000000000000 ) ) ;
#140 = DIRECTION ( 'NONE',  ( -1.000000000000000000, 0.000000000000000000, 0.000000000000000000 ) ) ;
#141 = PLANE ( 'NONE',  #241 ) ;
#142 = LOCAL_TIME ( 12, 25, 21.00000000000000000, #77 ) ;
#143 = DIRECTION ( 'NONE',  ( -0.000000000000000000, -0.000000000000000000, -1.000000000000000000 ) ) ;
#144 = CARTESIAN_POINT ( 'NONE',  ( 0.000000000000000000, 0.000000000000000000, 633.0000000000000000 ) ) ;
#145 = AXIS2_PLACEMENT_3D ( 'NONE', #21, #18, #185 ) ;
#146 = APPROVAL_DATE_TIME ( #79, #20 ) ;
#147 = CALENDAR_DATE ( 2022, 7, 7 ) ;
#148 = ADVANCED_BREP_SHAPE_REPRESENTATION ( '0ff7', ( #240, #124 ), #75 ) ;
#149 = EDGE_CURVE ( 'NONE', #63, #178, #260, .T. ) ;
#150 = DIRECTION ( 'NONE',  ( 1.000000000000000000, 0.000000000000000000, 0.000000000000000000 ) ) ;
#151 = DIRECTION ( 'NONE',  ( 0.000000000000000000, 0.000000000000000000, 1.000000000000000000 ) ) ;
#152 = ORIENTED_EDGE ( 'NONE', *, *, #235, .T. ) ;
#153 = DIRECTION ( 'NONE',  ( -0.000000000000000000, -0.000000000000000000, -1.000000000000000000 ) ) ;
#154 = ORIENTED_EDGE ( 'NONE', *, *, #27, .T. ) ;
#155 = ORIENTED_EDGE ( 'NONE', *, *, #6, .F. ) ;
#156 = PRODUCT_DEFINITION_FORMATION_WITH_SPECIFIED_SOURCE ( 'LIBOVOLNÝ', '', #54, .NOT_KNOWN. ) ;
#157 = LINE ( 'NONE', #280, #23 ) ;
#158 = FACE_OUTER_BOUND ( 'NONE', #62, .T. ) ;
#159 = CYLINDRICAL_SURFACE ( 'NONE', #171, 2.000000000000000000 ) ;
#160 = DIRECTION ( 'NONE',  ( 1.000000000000000000, 0.000000000000000000, 0.000000000000000000 ) ) ;
#161 = CIRCLE ( 'NONE', #70, 0.2000000000000000944 ) ;
#162 = PRODUCT_RELATED_PRODUCT_CATEGORY ( 'detail', '', ( #54 ) ) ;
#163 = DIRECTION ( 'NONE',  ( 1.000000000000000000, 0.000000000000000000, -0.000000000000000000 ) ) ;
#164 = DIRECTION ( 'NONE',  ( -0.000000000000000000, -0.000000000000000000, -1.000000000000000000 ) ) ;
#165 = APPROVAL_DATE_TIME ( #129, #113 ) ;
#166 = TOROIDAL_SURFACE ( 'NONE', #136, 2.200000000000000178, 0.2000000000000000111 ) ;
#167 = CC_DESIGN_DATE_AND_TIME_ASSIGNMENT ( #51, #4, ( #184 ) ) ;
#168 = PERSON_AND_ORGANIZATION_ROLE ( 'creator' ) ;
#169 = APPLICATION_CONTEXT ( 'configuration controlled 3d designs of mechanical parts and assemblies' ) ;
#170 = VECTOR ( 'NONE', #153, 1000.000000000000000 ) ;
#171 = AXIS2_PLACEMENT_3D ( 'NONE', #144, #92, #93 ) ;
#172 = EDGE_CURVE ( 'NONE', #109, #83, #210, .T. ) ;
#173 = COORDINATED_UNIVERSAL_TIME_OFFSET ( 1, 0, .AHEAD. ) ;
#174 = EDGE_LOOP ( 'NONE', ( #225, #182 ) ) ;
#175 = EDGE_CURVE ( 'NONE', #83, #109, #247, .T. ) ;
#176 = DIRECTION ( 'NONE',  ( -0.000000000000000000, -0.000000000000000000, -1.000000000000000000 ) ) ;
#177 = AXIS2_PLACEMENT_3D ( 'NONE', #108, #277, #150 ) ;
#178 = VERTEX_POINT ( 'NONE', #95 ) ;
#179 = CARTESIAN_POINT ( 'NONE',  ( 0.000000000000000000, 0.000000000000000000, 3.000000000000000000 ) ) ;
#180 = VERTEX_POINT ( 'NONE', #66 ) ;
#181 = ORIENTED_EDGE ( 'NONE', *, *, #246, .T. ) ;
#182 = ORIENTED_EDGE ( 'NONE', *, *, #172, .T. ) ;
#183 = DIRECTION ( 'NONE',  ( 0.000000000000000000, 0.000000000000000000, 1.000000000000000000 ) ) ;
#184 = PRODUCT_DEFINITION ( 'NEZNÁMÝ', '', #156, #270 ) ;
#185 = DIRECTION ( 'NONE',  ( 1.000000000000000000, 0.000000000000000000, 0.000000000000000000 ) ) ;
#186 = DIRECTION ( 'NONE',  ( 0.000000000000000000, 0.000000000000000000, -1.000000000000000000 ) ) ;
#187 = ADVANCED_FACE ( 'NONE', ( #48 ), #302, .T. ) ;
#188 = DIRECTION ( 'NONE',  ( 0.000000000000000000, 0.000000000000000000, 1.000000000000000000 ) ) ;
#189 = CARTESIAN_POINT ( 'NONE',  ( 0.000000000000000000, 0.000000000000000000, 0.000000000000000000 ) ) ;
#190 = ADVANCED_FACE ( 'NONE', ( #72, #158 ), #25, .T. ) ;
#191 = APPROVAL_ROLE ( '' ) ;
#192 = LOCAL_TIME ( 12, 25, 21.00000000000000000, #28 ) ;
#193 = DATE_AND_TIME ( #242, #24 ) ;
#194 = PRODUCT_DEFINITION_SHAPE ( 'NONE', 'NONE',  #184 ) ;
#195 = PERSON_AND_ORGANIZATION_ROLE ( 'design_supplier' ) ;
#196 = PERSON_AND_ORGANIZATION_ROLE ( 'creator' ) ;
#197 = UNCERTAINTY_MEASURE_WITH_UNIT (LENGTH_MEASURE( 1.000000000000000082E-05 ), #43, 'distance_accuracy_value', 'NONE');
#198 = ORGANIZATION ( 'NEURÈENÝ', 'NEURÈENÝ', '' ) ;
#199 = APPLICATION_CONTEXT ( 'configuration controlled 3d designs of mechanical parts and assemblies' ) ;
#200 = CARTESIAN_POINT ( 'NONE',  ( 0.000000000000000000, 0.000000000000000000, 0.000000000000000000 ) ) ;
#201 = DIRECTION ( 'NONE',  ( 1.000000000000000000, 0.000000000000000000, -0.000000000000000000 ) ) ;
#202 = ORIENTED_EDGE ( 'NONE', *, *, #6, .T. ) ;
#203 = CARTESIAN_POINT ( 'NONE',  ( -2.000000000000000000, 0.000000000000000000, 633.0000000000000000 ) ) ;
#204 = ADVANCED_FACE ( 'NONE', ( #258 ), #159, .T. ) ;
#205 = ORIENTED_EDGE ( 'NONE', *, *, #149, .F. ) ;
#206 = DIRECTION ( 'NONE',  ( 0.000000000000000000, 0.000000000000000000, 1.000000000000000000 ) ) ;
#207 = EDGE_CURVE ( 'NONE', #15, #11, #266, .T. ) ;
#208 = DIRECTION ( 'NONE',  ( 1.000000000000000000, 0.000000000000000000, 0.000000000000000000 ) ) ;
#209 = CARTESIAN_POINT ( 'NONE',  ( 0.000000000000000000, 0.000000000000000000, 633.0000000000000000 ) ) ;
#210 = CIRCLE ( 'NONE', #253, 2.000000000000000000 ) ;
#211 = DIRECTION ( 'NONE',  ( 1.000000000000000000, 0.000000000000000000, -0.000000000000000000 ) ) ;
#212 = DIRECTION ( 'NONE',  ( 1.000000000000000000, 0.000000000000000000, 0.000000000000000000 ) ) ;
#213 = EDGE_CURVE ( 'NONE', #294, #180, #40, .T. ) ;
#214 = PERSON_AND_ORGANIZATION ( #3, #198 ) ;
#215 = CALENDAR_DATE ( 2022, 7, 7 ) ;
#216 = CIRCLE ( 'NONE', #145, 4.000000000000000000 ) ;
#217 = APPROVAL_STATUS ( 'not_yet_approved' ) ;
#218 = APPROVAL ( #98, 'NEURÈENÝ' ) ;
#219 =( NAMED_UNIT ( * ) SI_UNIT ( $, .STERADIAN. ) SOLID_ANGLE_UNIT ( ) );
#220 = AXIS2_PLACEMENT_3D ( 'NONE', #231, #264, #263 ) ;
#221 = ORIENTED_EDGE ( 'NONE', *, *, #238, .T. ) ;
#222 = CARTESIAN_POINT ( 'NONE',  ( 2.000000000000000000, 2.449293598294706414E-16, 633.0000000000000000 ) ) ;
#223 = CC_DESIGN_PERSON_AND_ORGANIZATION_ASSIGNMENT ( #5, #104, ( #54 ) ) ;
#224 = DIRECTION ( 'NONE',  ( 0.000000000000000000, 0.000000000000000000, 1.000000000000000000 ) ) ;
#225 = ORIENTED_EDGE ( 'NONE', *, *, #175, .T. ) ;
#226 = FACE_OUTER_BOUND ( 'NONE', #138, .T. ) ;
#227 = EDGE_LOOP ( 'NONE', ( #110, #299, #14, #300 ) ) ;
#228 = CARTESIAN_POINT ( 'NONE',  ( 0.000000000000000000, 0.000000000000000000, 633.0000000000000000 ) ) ;
#229 = CARTESIAN_POINT ( 'NONE',  ( 2.200000000000000178, 0.000000000000000000, 3.199999999999980638 ) ) ;
#230 = CARTESIAN_POINT ( 'NONE',  ( 0.000000000000000000, 0.000000000000000000, 3.199999999999980638 ) ) ;
#231 = CARTESIAN_POINT ( 'NONE',  ( -2.200000000000000178, 2.694222958124177006E-16, 3.199999999999980638 ) ) ;
#232 = CARTESIAN_POINT ( 'NONE',  ( 2.000000000000000000, 2.449293598294706414E-16, 3.199999999999980638 ) ) ;
#233 = FACE_OUTER_BOUND ( 'NONE', #174, .T. ) ;
#234 = CIRCLE ( 'NONE', #85, 2.200000000000000178 ) ;
#235 = EDGE_CURVE ( 'NONE', #250, #7, #161, .T. ) ;
#236 = CARTESIAN_POINT ( 'NONE',  ( 0.000000000000000000, 0.000000000000000000, 0.000000000000000000 ) ) ;
#237 = PERSON_AND_ORGANIZATION ( #3, #198 ) ;
#238 = EDGE_CURVE ( 'NONE', #180, #294, #216, .T. ) ;
#239 = COORDINATED_UNIVERSAL_TIME_OFFSET ( 1, 0, .AHEAD. ) ;
#240 = MANIFOLD_SOLID_BREP ( 'Zaoblit1', #91 ) ;
#241 = AXIS2_PLACEMENT_3D ( 'NONE', #262, #188, #211 ) ;
#242 = CALENDAR_DATE ( 2022, 7, 7 ) ;
#243 = EDGE_LOOP ( 'NONE', ( #137, #254, #154, #9 ) ) ;
#244 = APPROVAL_ROLE ( '' ) ;
#245 = FACE_OUTER_BOUND ( 'NONE', #61, .T. ) ;
#246 = EDGE_CURVE ( 'NONE', #11, #7, #255, .T. ) ;
#247 = CIRCLE ( 'NONE', #119, 2.000000000000000000 ) ;
#248 = APPROVAL_PERSON_ORGANIZATION ( #237, #113, #244 ) ;
#249 = DIRECTION ( 'NONE',  ( 1.000000000000000000, 0.000000000000000000, 0.000000000000000000 ) ) ;
#250 = VERTEX_POINT ( 'NONE', #232 ) ;
#251 = ADVANCED_FACE ( 'NONE', ( #97 ), #283, .T. ) ;
#252 = CARTESIAN_POINT ( 'NONE',  ( 0.000000000000000000, 0.000000000000000000, 3.199999999999980638 ) ) ;
#253 = AXIS2_PLACEMENT_3D ( 'NONE', #228, #16, #249 ) ;
#254 = ORIENTED_EDGE ( 'NONE', *, *, #73, .T. ) ;
#255 = CIRCLE ( 'NONE', #50, 2.200000000000000178 ) ;
#256 = CARTESIAN_POINT ( 'NONE',  ( 0.000000000000000000, 0.000000000000000000, 3.199999999999980638 ) ) ;
#257 = CYLINDRICAL_SURFACE ( 'NONE', #30, 4.000000000000000000 ) ;
#258 = FACE_OUTER_BOUND ( 'NONE', #243, .T. ) ;
#259 = EDGE_CURVE ( 'NONE', #7, #11, #234, .T. ) ;
#260 = CIRCLE ( 'NONE', #127, 4.000000000000000000 ) ;
#261 = AXIS2_PLACEMENT_3D ( 'NONE', #189, #206, #208 ) ;
#262 = CARTESIAN_POINT ( 'NONE',  ( 0.000000000000000000, 0.000000000000000000, 633.0000000000000000 ) ) ;
#263 = DIRECTION ( 'NONE',  ( -1.000000000000000000, 1.224646799147353207E-16, 0.000000000000000000 ) ) ;
#264 = DIRECTION ( 'NONE',  ( 1.224646799147353207E-16, 1.000000000000000000, -0.000000000000000000 ) ) ;
#265 = APPROVAL_ROLE ( '' ) ;
#266 = CIRCLE ( 'NONE', #220, 0.2000000000000000944 ) ;
#267 = ADVANCED_FACE ( 'NONE', ( #233 ), #141, .T. ) ;
#268 = SHAPE_DEFINITION_REPRESENTATION ( #194, #148 ) ;
#269 = PERSON_AND_ORGANIZATION ( #3, #198 ) ;
#270 = DESIGN_CONTEXT ( 'detailed design', #169, 'design' ) ;
#271 = ORIENTED_EDGE ( 'NONE', *, *, #102, .T. ) ;
#272 = CC_DESIGN_PERSON_AND_ORGANIZATION_ASSIGNMENT ( #32, #196, ( #184 ) ) ;
#273 = ORIENTED_EDGE ( 'NONE', *, *, #102, .F. ) ;
#274 = DIRECTION ( 'NONE',  ( 1.000000000000000000, 0.000000000000000000, 0.000000000000000000 ) ) ;
#275 = CC_DESIGN_APPROVAL ( #20, ( #156 ) ) ;
#276 = ORIENTED_EDGE ( 'NONE', *, *, #282, .F. ) ;
#277 = DIRECTION ( 'NONE',  ( 0.000000000000000000, 0.000000000000000000, 1.000000000000000000 ) ) ;
#278 = CC_DESIGN_PERSON_AND_ORGANIZATION_ASSIGNMENT ( #103, #78, ( #53 ) ) ;
#279 = CARTESIAN_POINT ( 'NONE',  ( -2.000000000000000000, 0.000000000000000000, 633.0000000000000000 ) ) ;
#280 = CARTESIAN_POINT ( 'NONE',  ( 4.000000000000000000, 4.898587196589412829E-16, 3.000000000000000000 ) ) ;
#281 = ORIENTED_EDGE ( 'NONE', *, *, #213, .F. ) ;
#282 = EDGE_CURVE ( 'NONE', #15, #250, #58, .T. ) ;
#283 = CYLINDRICAL_SURFACE ( 'NONE', #301, 2.000000000000000000 ) ;
#284 = CARTESIAN_POINT ( 'NONE',  ( 0.000000000000000000, 0.000000000000000000, 3.000000000000000000 ) ) ;
#285 = AXIS2_PLACEMENT_3D ( 'NONE', #200, #82, #201 ) ;
#286 = CARTESIAN_POINT ( 'NONE',  ( 0.000000000000000000, 0.000000000000000000, 3.000000000000000000 ) ) ;
#287 = APPLICATION_PROTOCOL_DEFINITION ( 'international standard', 'config_control_design', 1994, #199 ) ;
#288 = APPROVAL_PERSON_ORGANIZATION ( #269, #218, #191 ) ;
#289 = APPROVAL_DATE_TIME ( #193, #218 ) ;
#290 = CALENDAR_DATE ( 2022, 7, 7 ) ;
#291 = DIRECTION ( 'NONE',  ( 1.000000000000000000, 0.000000000000000000, 0.000000000000000000 ) ) ;
#292 = EDGE_LOOP ( 'NONE', ( #205, #271, #221, #88 ) ) ;
#293 = LINE ( 'NONE', #203, #111 ) ;
#294 = VERTEX_POINT ( 'NONE', #19 ) ;
#295 = ADVANCED_FACE ( 'NONE', ( #304 ), #257, .T. ) ;
#296 = DIRECTION ( 'NONE',  ( 1.000000000000000000, 0.000000000000000000, 0.000000000000000000 ) ) ;
#297 = ORIENTED_EDGE ( 'NONE', *, *, #207, .F. ) ;
#298 = CARTESIAN_POINT ( 'NONE',  ( 2.200000000000000178, 0.000000000000000000, 2.999999999999990674 ) ) ;
#299 = ORIENTED_EDGE ( 'NONE', *, *, #175, .F. ) ;
#300 = ORIENTED_EDGE ( 'NONE', *, *, #282, .T. ) ;
#301 = AXIS2_PLACEMENT_3D ( 'NONE', #209, #125, #140 ) ;
#302 = CYLINDRICAL_SURFACE ( 'NONE', #80, 4.000000000000000000 ) ;
#303 = DIRECTION ( 'NONE',  ( 0.000000000000000000, 0.000000000000000000, 1.000000000000000000 ) ) ;
#304 = FACE_OUTER_BOUND ( 'NONE', #34, .T. ) ;
#305 = CIRCLE ( 'NONE', #177, 2.000000000000000000 ) ;
#306 = DIRECTION ( 'NONE',  ( 0.000000000000000000, -1.000000000000000000, 0.000000000000000000 ) ) ;
#307 = DATE_AND_TIME ( #215, #192 ) ;
ENDSEC;
END-ISO-10303-21;
