ISO-10303-21;
HEADER;
FILE_DESCRIPTION (( 'STEP AP203' ),
    '1' );
FILE_NAME ('17b7.STEP',
    '2022-07-07T09:37:30',
    ( '' ),
    ( '' ),
    'SwSTEP 2.0',
    'SolidWorks 2019',
    '' );
FILE_SCHEMA (( 'CONFIG_CONTROL_DESIGN' ));
ENDSEC;

DATA;
#1 = ORIENTED_EDGE ( 'NONE', *, *, #276, .T. ) ;
#2 = CARTESIAN_POINT ( 'NONE',  ( 8.000000000000000000, 9.797174393178825657E-16, 1006.999999999999886 ) ) ;
#3 = CIRCLE ( 'NONE', #165, 0.1999999999999996503 ) ;
#4 = EDGE_CURVE ( 'NONE', #287, #122, #250, .T. ) ;
#5 = CARTESIAN_POINT ( 'NONE',  ( 11.00000000000000000, 1.347111479062088405E-15, 0.000000000000000000 ) ) ;
#6 = SECURITY_CLASSIFICATION ( '', '', #302 ) ;
#7 = DIRECTION ( 'NONE',  ( 1.000000000000000000, 0.000000000000000000, 0.000000000000000000 ) ) ;
#8 = DIRECTION ( 'NONE',  ( 0.000000000000000000, -1.000000000000000000, 0.000000000000000000 ) ) ;
#9 = DIRECTION ( 'NONE',  ( 0.000000000000000000, 0.000000000000000000, 1.000000000000000000 ) ) ;
#10 = EDGE_CURVE ( 'NONE', #82, #244, #269, .T. ) ;
#11 = CALENDAR_DATE ( 2022, 7, 7 ) ;
#12 = ORIENTED_EDGE ( 'NONE', *, *, #105, .T. ) ;
#13 = AXIS2_PLACEMENT_3D ( 'NONE', #252, #35, #176 ) ;
#14 = DATE_AND_TIME ( #300, #258 ) ;
#15 = VECTOR ( 'NONE', #175, 1000.000000000000000 ) ;
#16 = APPROVAL_ROLE ( '' ) ;
#17 = PERSON_AND_ORGANIZATION ( #221, #183 ) ;
#18 = PERSON_AND_ORGANIZATION ( #221, #183 ) ;
#19 = ORIENTED_EDGE ( 'NONE', *, *, #99, .F. ) ;
#20 = LINE ( 'NONE', #147, #253 ) ;
#21 = ORIENTED_EDGE ( 'NONE', *, *, #96, .T. ) ;
#22 = CARTESIAN_POINT ( 'NONE',  ( 8.200000000000001066, 0.000000000000000000, 6.999999999999992006 ) ) ;
#23 = ORIENTED_EDGE ( 'NONE', *, *, #204, .F. ) ;
#24 = CLOSED_SHELL ( 'NONE', ( #151, #261, #234, #28, #32, #157, #225, #50, #272 ) ) ;
#25 = EDGE_LOOP ( 'NONE', ( #83, #19 ) ) ;
#26 = ORIENTED_EDGE ( 'NONE', *, *, #301, .T. ) ;
#27 = DIRECTION ( 'NONE',  ( 1.000000000000000000, 0.000000000000000000, -0.000000000000000000 ) ) ;
#28 = ADVANCED_FACE ( 'NONE', ( #146 ), #247, .T. ) ;
#29 = FACE_OUTER_BOUND ( 'NONE', #119, .T. ) ;
#30 = ORIENTED_EDGE ( 'NONE', *, *, #10, .T. ) ;
#31 = FACE_OUTER_BOUND ( 'NONE', #152, .T. ) ;
#32 = ADVANCED_FACE ( 'NONE', ( #148, #212 ), #305, .T. ) ;
#33 = AXIS2_PLACEMENT_3D ( 'NONE', #216, #193, #73 ) ;
#34 = AXIS2_PLACEMENT_3D ( 'NONE', #150, #54, #123 ) ;
#35 = DIRECTION ( 'NONE',  ( 1.224646799147353207E-16, 1.000000000000000000, -0.000000000000000000 ) ) ;
#36 = DIRECTION ( 'NONE',  ( 0.000000000000000000, 0.000000000000000000, 1.000000000000000000 ) ) ;
#37 = ADVANCED_BREP_SHAPE_REPRESENTATION ( '17b7', ( #125, #33 ), #81 ) ;
#38 = ORIENTED_EDGE ( 'NONE', *, *, #144, .F. ) ;
#39 = CC_DESIGN_PERSON_AND_ORGANIZATION_ASSIGNMENT ( #17, #299, ( #121 ) ) ;
#40 = PERSON_AND_ORGANIZATION ( #221, #183 ) ;
#41 = CC_DESIGN_PERSON_AND_ORGANIZATION_ASSIGNMENT ( #95, #268, ( #159 ) ) ;
#42 = AXIS2_PLACEMENT_3D ( 'NONE', #293, #9, #273 ) ;
#43 = DIRECTION ( 'NONE',  ( 1.000000000000000000, 0.000000000000000000, 0.000000000000000000 ) ) ;
#44 = DIRECTION ( 'NONE',  ( 1.000000000000000000, 0.000000000000000000, 0.000000000000000000 ) ) ;
#45 = FACE_OUTER_BOUND ( 'NONE', #190, .T. ) ;
#46 = LOCAL_TIME ( 11, 37, 30.00000000000000000, #184 ) ;
#47 = CARTESIAN_POINT ( 'NONE',  ( 8.000000000000000000, 9.797174393178825657E-16, 7.199999999999984190 ) ) ;
#48 = DIRECTION ( 'NONE',  ( 0.000000000000000000, 0.000000000000000000, 1.000000000000000000 ) ) ;
#49 = DIRECTION ( 'NONE',  ( 0.000000000000000000, 0.000000000000000000, 1.000000000000000000 ) ) ;
#50 = ADVANCED_FACE ( 'NONE', ( #92 ), #167, .T. ) ;
#51 = EDGE_LOOP ( 'NONE', ( #196, #169, #192, #117 ) ) ;
#52 = CIRCLE ( 'NONE', #229, 8.000000000000000000 ) ;
#53 = CYLINDRICAL_SURFACE ( 'NONE', #34, 8.000000000000000000 ) ;
#54 = DIRECTION ( 'NONE',  ( -0.000000000000000000, -0.000000000000000000, -1.000000000000000000 ) ) ;
#55 = DIRECTION ( 'NONE',  ( 1.000000000000000000, 0.000000000000000000, -0.000000000000000000 ) ) ;
#56 = TOROIDAL_SURFACE ( 'NONE', #303, 8.200000000000001066, 0.2000000000000000111 ) ;
#57 = DIRECTION ( 'NONE',  ( 0.000000000000000000, 0.000000000000000000, 1.000000000000000000 ) ) ;
#58 = ORIENTED_EDGE ( 'NONE', *, *, #185, .F. ) ;
#59 = CIRCLE ( 'NONE', #237, 11.00000000000000000 ) ;
#60 = APPROVAL ( #236, 'NEURÈENÝ' ) ;
#61 = ORIENTED_EDGE ( 'NONE', *, *, #301, .F. ) ;
#62 = AXIS2_PLACEMENT_3D ( 'NONE', #241, #49, #306 ) ;
#63 = DATE_AND_TIME ( #85, #46 ) ;
#64 = APPROVAL ( #158, 'NEURÈENÝ' ) ;
#65 = APPROVAL_PERSON_ORGANIZATION ( #120, #60, #278 ) ;
#66 = EDGE_CURVE ( 'NONE', #82, #188, #238, .T. ) ;
#67 = VERTEX_POINT ( 'NONE', #47 ) ;
#68 = CIRCLE ( 'NONE', #13, 0.2000000000000005107 ) ;
#69 = EDGE_LOOP ( 'NONE', ( #242, #58, #12, #232 ) ) ;
#70 = CARTESIAN_POINT ( 'NONE',  ( 11.00000000000000000, 1.347111479062088405E-15, 7.000000000000000000 ) ) ;
#71 = CIRCLE ( 'NONE', #127, 8.000000000000000000 ) ;
#72 = CARTESIAN_POINT ( 'NONE',  ( 0.000000000000000000, 0.000000000000000000, 1006.999999999999886 ) ) ;
#73 = DIRECTION ( 'NONE',  ( 1.000000000000000000, 0.000000000000000000, 0.000000000000000000 ) ) ;
#74 = PRODUCT_RELATED_PRODUCT_CATEGORY ( 'detail', '', ( #159 ) ) ;
#75 = DIRECTION ( 'NONE',  ( 0.000000000000000000, 0.000000000000000000, 1.000000000000000000 ) ) ;
#76 = DIRECTION ( 'NONE',  ( 0.000000000000000000, 0.000000000000000000, 1.000000000000000000 ) ) ;
#77 = CC_DESIGN_PERSON_AND_ORGANIZATION_ASSIGNMENT ( #298, #136, ( #6 ) ) ;
#78 = FACE_OUTER_BOUND ( 'NONE', #25, .T. ) ;
#79 = DIRECTION ( 'NONE',  ( 0.000000000000000000, 0.000000000000000000, -1.000000000000000000 ) ) ;
#80 = PRODUCT_DEFINITION_SHAPE ( 'NONE', 'NONE',  #255 ) ;
#81 =( GEOMETRIC_REPRESENTATION_CONTEXT ( 3 ) GLOBAL_UNCERTAINTY_ASSIGNED_CONTEXT ( ( #259 ) ) GLOBAL_UNIT_ASSIGNED_CONTEXT ( ( #283, #219, #93 ) ) REPRESENTATION_CONTEXT ( 'NONE', 'WORKASPACE' ) );
#82 = VERTEX_POINT ( 'NONE', #263 ) ;
#83 = ORIENTED_EDGE ( 'NONE', *, *, #96, .F. ) ;
#84 = AXIS2_PLACEMENT_3D ( 'NONE', #166, #75, #171 ) ;
#85 = CALENDAR_DATE ( 2022, 7, 7 ) ;
#86 = EDGE_CURVE ( 'NONE', #114, #67, #220, .T. ) ;
#87 = PERSON_AND_ORGANIZATION_ROLE ( 'design_supplier' ) ;
#88 = PERSON_AND_ORGANIZATION ( #221, #183 ) ;
#89 = CALENDAR_DATE ( 2022, 7, 7 ) ;
#90 = CC_DESIGN_PERSON_AND_ORGANIZATION_ASSIGNMENT ( #18, #233, ( #255 ) ) ;
#91 = CARTESIAN_POINT ( 'NONE',  ( 0.000000000000000000, 0.000000000000000000, 7.000000000000000000 ) ) ;
#92 = FACE_OUTER_BOUND ( 'NONE', #181, .T. ) ;
#93 =( NAMED_UNIT ( * ) SI_UNIT ( $, .STERADIAN. ) SOLID_ANGLE_UNIT ( ) );
#94 = ORIENTED_EDGE ( 'NONE', *, *, #4, .T. ) ;
#95 = PERSON_AND_ORGANIZATION ( #221, #183 ) ;
#96 = EDGE_CURVE ( 'NONE', #188, #163, #59, .T. ) ;
#97 = ORIENTED_EDGE ( 'NONE', *, *, #86, .T. ) ;
#98 = CARTESIAN_POINT ( 'NONE',  ( 0.000000000000000000, 0.000000000000000000, 0.000000000000000000 ) ) ;
#99 = EDGE_CURVE ( 'NONE', #163, #188, #124, .T. ) ;
#100 = VERTEX_POINT ( 'NONE', #103 ) ;
#101 = DIRECTION ( 'NONE',  ( 1.000000000000000000, 0.000000000000000000, 0.000000000000000000 ) ) ;
#102 = APPROVAL_PERSON_ORGANIZATION ( #40, #172, #16 ) ;
#103 = CARTESIAN_POINT ( 'NONE',  ( -8.000000000000000000, 0.000000000000000000, 1006.999999999999886 ) ) ;
#104 = CARTESIAN_POINT ( 'NONE',  ( 0.000000000000000000, 0.000000000000000000, 0.000000000000000000 ) ) ;
#105 = EDGE_CURVE ( 'NONE', #67, #287, #3, .T. ) ;
#106 = DATE_AND_TIME ( #107, #149 ) ;
#107 = CALENDAR_DATE ( 2022, 7, 7 ) ;
#108 = DATE_AND_TIME ( #89, #248 ) ;
#109 = VECTOR ( 'NONE', #111, 1000.000000000000000 ) ;
#110 = COORDINATED_UNIVERSAL_TIME_OFFSET ( 1, 0, .AHEAD. ) ;
#111 = DIRECTION ( 'NONE',  ( -0.000000000000000000, -0.000000000000000000, -1.000000000000000000 ) ) ;
#112 = CIRCLE ( 'NONE', #235, 8.200000000000001066 ) ;
#113 = CC_DESIGN_SECURITY_CLASSIFICATION ( #6, ( #121 ) ) ;
#114 = VERTEX_POINT ( 'NONE', #201 ) ;
#115 = CARTESIAN_POINT ( 'NONE',  ( -8.000000000000000000, 0.000000000000000000, 7.199999999999984190 ) ) ;
#116 = EDGE_CURVE ( 'NONE', #267, #122, #68, .T. ) ;
#117 = ORIENTED_EDGE ( 'NONE', *, *, #105, .F. ) ;
#118 = MECHANICAL_CONTEXT ( 'NONE', #161, 'mechanical' ) ;
#119 = EDGE_LOOP ( 'NONE', ( #61, #260, #291, #223 ) ) ;
#120 = PERSON_AND_ORGANIZATION ( #221, #183 ) ;
#121 = PRODUCT_DEFINITION_FORMATION_WITH_SPECIFIED_SOURCE ( 'LIBOVOLNÝ', '', #159, .NOT_KNOWN. ) ;
#122 = VERTEX_POINT ( 'NONE', #254 ) ;
#123 = DIRECTION ( 'NONE',  ( -1.000000000000000000, 0.000000000000000000, 0.000000000000000000 ) ) ;
#124 = CIRCLE ( 'NONE', #138, 11.00000000000000000 ) ;
#125 = MANIFOLD_SOLID_BREP ( 'Zaoblit1', #24 ) ;
#126 = CARTESIAN_POINT ( 'NONE',  ( 8.200000000000001066, 0.000000000000000000, 7.199999999999984190 ) ) ;
#127 = AXIS2_PLACEMENT_3D ( 'NONE', #271, #129, #101 ) ;
#128 = DIRECTION ( 'NONE',  ( 1.000000000000000000, 0.000000000000000000, 0.000000000000000000 ) ) ;
#129 = DIRECTION ( 'NONE',  ( 0.000000000000000000, 0.000000000000000000, 1.000000000000000000 ) ) ;
#130 = EDGE_CURVE ( 'NONE', #244, #163, #295, .T. ) ;
#131 = AXIS2_PLACEMENT_3D ( 'NONE', #139, #282, #218 ) ;
#132 = ORIENTED_EDGE ( 'NONE', *, *, #204, .T. ) ;
#133 = DATE_AND_TIME ( #11, #142 ) ;
#134 = CC_DESIGN_DATE_AND_TIME_ASSIGNMENT ( #133, #209, ( #255 ) ) ;
#135 = APPROVAL_DATE_TIME ( #14, #60 ) ;
#136 = PERSON_AND_ORGANIZATION_ROLE ( 'classification_officer' ) ;
#137 = EDGE_CURVE ( 'NONE', #122, #287, #112, .T. ) ;
#138 = AXIS2_PLACEMENT_3D ( 'NONE', #141, #153, #294 ) ;
#139 = CARTESIAN_POINT ( 'NONE',  ( 0.000000000000000000, 0.000000000000000000, 7.000000000000000000 ) ) ;
#140 = CARTESIAN_POINT ( 'NONE',  ( 0.000000000000000000, 0.000000000000000000, 7.199999999999984190 ) ) ;
#141 = CARTESIAN_POINT ( 'NONE',  ( 0.000000000000000000, 0.000000000000000000, 0.000000000000000000 ) ) ;
#142 = LOCAL_TIME ( 11, 37, 30.00000000000000000, #110 ) ;
#143 = CARTESIAN_POINT ( 'NONE',  ( 0.000000000000000000, 0.000000000000000000, 1006.999999999999886 ) ) ;
#144 = EDGE_CURVE ( 'NONE', #114, #100, #52, .T. ) ;
#145 = ORIENTED_EDGE ( 'NONE', *, *, #144, .T. ) ;
#146 = FACE_OUTER_BOUND ( 'NONE', #215, .T. ) ;
#147 = CARTESIAN_POINT ( 'NONE',  ( -8.000000000000000000, 0.000000000000000000, 1006.999999999999886 ) ) ;
#148 = FACE_BOUND ( 'NONE', #240, .T. ) ;
#149 = LOCAL_TIME ( 11, 37, 30.00000000000000000, #205 ) ;
#150 = CARTESIAN_POINT ( 'NONE',  ( 0.000000000000000000, 0.000000000000000000, 1006.999999999999886 ) ) ;
#151 = ADVANCED_FACE ( 'NONE', ( #275 ), #56, .F. ) ;
#152 = EDGE_LOOP ( 'NONE', ( #194, #23, #1, #203 ) ) ;
#153 = DIRECTION ( 'NONE',  ( 0.000000000000000000, 0.000000000000000000, 1.000000000000000000 ) ) ;
#154 = CARTESIAN_POINT ( 'NONE',  ( 0.000000000000000000, 0.000000000000000000, 1006.999999999999886 ) ) ;
#155 = CARTESIAN_POINT ( 'NONE',  ( 0.000000000000000000, 0.000000000000000000, 7.199999999999984190 ) ) ;
#156 = EDGE_LOOP ( 'NONE', ( #30, #26 ) ) ;
#157 = ADVANCED_FACE ( 'NONE', ( #78 ), #227, .F. ) ;
#158 = APPROVAL_STATUS ( 'not_yet_approved' ) ;
#159 = PRODUCT ( '17b7', '17b7', '', ( #118 ) ) ;
#160 = DESIGN_CONTEXT ( 'detailed design', #207, 'design' ) ;
#161 = APPLICATION_CONTEXT ( 'configuration controlled 3d designs of mechanical parts and assemblies' ) ;
#162 = CIRCLE ( 'NONE', #62, 11.00000000000000000 ) ;
#163 = VERTEX_POINT ( 'NONE', #5 ) ;
#164 = DIRECTION ( 'NONE',  ( -0.000000000000000000, -0.000000000000000000, -1.000000000000000000 ) ) ;
#165 = AXIS2_PLACEMENT_3D ( 'NONE', #126, #8, #79 ) ;
#166 = CARTESIAN_POINT ( 'NONE',  ( 0.000000000000000000, 0.000000000000000000, 7.000000000000000000 ) ) ;
#167 = PLANE ( 'NONE',  #290 ) ;
#168 = AXIS2_PLACEMENT_3D ( 'NONE', #140, #266, #214 ) ;
#169 = ORIENTED_EDGE ( 'NONE', *, *, #116, .T. ) ;
#170 = DIRECTION ( 'NONE',  ( -1.000000000000000000, 0.000000000000000000, 0.000000000000000000 ) ) ;
#171 = DIRECTION ( 'NONE',  ( 1.000000000000000000, 0.000000000000000000, -0.000000000000000000 ) ) ;
#172 = APPROVAL ( #187, 'NEURÈENÝ' ) ;
#173 = CARTESIAN_POINT ( 'NONE',  ( 11.00000000000000000, 1.347111479062088405E-15, 7.000000000000000000 ) ) ;
#174 = CIRCLE ( 'NONE', #42, 8.000000000000000000 ) ;
#175 = DIRECTION ( 'NONE',  ( -0.000000000000000000, -0.000000000000000000, -1.000000000000000000 ) ) ;
#176 = DIRECTION ( 'NONE',  ( -1.000000000000000000, 1.224646799147353207E-16, 0.000000000000000000 ) ) ;
#177 = EDGE_CURVE ( 'NONE', #267, #67, #211, .T. ) ;
#178 = DIRECTION ( 'NONE',  ( -0.000000000000000000, -0.000000000000000000, -1.000000000000000000 ) ) ;
#179 = AXIS2_PLACEMENT_3D ( 'NONE', #143, #262, #239 ) ;
#180 = ORIENTED_EDGE ( 'NONE', *, *, #66, .T. ) ;
#181 = EDGE_LOOP ( 'NONE', ( #132, #145 ) ) ;
#182 = SHAPE_DEFINITION_REPRESENTATION ( #80, #37 ) ;
#183 = ORGANIZATION ( 'NEURÈENÝ', 'NEURÈENÝ', '' ) ;
#184 = COORDINATED_UNIVERSAL_TIME_OFFSET ( 1, 0, .AHEAD. ) ;
#185 = EDGE_CURVE ( 'NONE', #67, #267, #71, .T. ) ;
#186 = DATE_TIME_ROLE ( 'classification_date' ) ;
#187 = APPROVAL_STATUS ( 'not_yet_approved' ) ;
#188 = VERTEX_POINT ( 'NONE', #228 ) ;
#189 = DIRECTION ( 'NONE',  ( -0.000000000000000000, -0.000000000000000000, -1.000000000000000000 ) ) ;
#190 = EDGE_LOOP ( 'NONE', ( #38, #97, #256, #198 ) ) ;
#191 = CYLINDRICAL_SURFACE ( 'NONE', #179, 8.000000000000000000 ) ;
#192 = ORIENTED_EDGE ( 'NONE', *, *, #4, .F. ) ;
#193 = DIRECTION ( 'NONE',  ( 0.000000000000000000, 0.000000000000000000, 1.000000000000000000 ) ) ;
#194 = ORIENTED_EDGE ( 'NONE', *, *, #86, .F. ) ;
#195 = VECTOR ( 'NONE', #304, 1000.000000000000000 ) ;
#196 = ORIENTED_EDGE ( 'NONE', *, *, #177, .F. ) ;
#197 = DIRECTION ( 'NONE',  ( 0.000000000000000000, 0.000000000000000000, 1.000000000000000000 ) ) ;
#198 = ORIENTED_EDGE ( 'NONE', *, *, #276, .F. ) ;
#199 = CARTESIAN_POINT ( 'NONE',  ( 0.000000000000000000, 0.000000000000000000, 7.000000000000000000 ) ) ;
#200 = DIRECTION ( 'NONE',  ( 1.000000000000000000, 0.000000000000000000, 0.000000000000000000 ) ) ;
#201 = CARTESIAN_POINT ( 'NONE',  ( 8.000000000000000000, 9.797174393178825657E-16, 1006.999999999999886 ) ) ;
#202 = AXIS2_PLACEMENT_3D ( 'NONE', #155, #36, #7 ) ;
#203 = ORIENTED_EDGE ( 'NONE', *, *, #177, .T. ) ;
#204 = EDGE_CURVE ( 'NONE', #100, #114, #174, .T. ) ;
#205 = COORDINATED_UNIVERSAL_TIME_OFFSET ( 1, 0, .AHEAD. ) ;
#206 = CC_DESIGN_APPROVAL ( #60, ( #255 ) ) ;
#207 = APPLICATION_CONTEXT ( 'configuration controlled 3d designs of mechanical parts and assemblies' ) ;
#208 = APPROVAL_DATE_TIME ( #106, #64 ) ;
#209 = DATE_TIME_ROLE ( 'creation_date' ) ;
#210 = APPROVAL_ROLE ( '' ) ;
#211 = CIRCLE ( 'NONE', #202, 8.000000000000000000 ) ;
#212 = FACE_OUTER_BOUND ( 'NONE', #156, .T. ) ;
#213 = ORIENTED_EDGE ( 'NONE', *, *, #137, .T. ) ;
#214 = DIRECTION ( 'NONE',  ( 1.000000000000000000, 0.000000000000000000, 0.000000000000000000 ) ) ;
#215 = EDGE_LOOP ( 'NONE', ( #277, #307, #180, #21 ) ) ;
#216 = CARTESIAN_POINT ( 'NONE',  ( 0.000000000000000000, 0.000000000000000000, 0.000000000000000000 ) ) ;
#217 = TOROIDAL_SURFACE ( 'NONE', #168, 8.200000000000001066, 0.2000000000000000111 ) ;
#218 = DIRECTION ( 'NONE',  ( -1.000000000000000000, 0.000000000000000000, 0.000000000000000000 ) ) ;
#219 =( NAMED_UNIT ( * ) PLANE_ANGLE_UNIT ( ) SI_UNIT ( $, .RADIAN. ) );
#220 = LINE ( 'NONE', #2, #195 ) ;
#221 = PERSON ( 'NEURÈENÝ', 'NEURÈENÝ', 'NEURÈENÝ', ('NEURÈENÝ'), ('NEURÈENÝ'), ('NEURÈENÝ') ) ;
#222 = AXIS2_PLACEMENT_3D ( 'NONE', #91, #48, #44 ) ;
#223 = ORIENTED_EDGE ( 'NONE', *, *, #66, .F. ) ;
#224 = CYLINDRICAL_SURFACE ( 'NONE', #296, 11.00000000000000000 ) ;
#225 = ADVANCED_FACE ( 'NONE', ( #31 ), #53, .T. ) ;
#226 = CARTESIAN_POINT ( 'NONE',  ( 0.000000000000000000, 0.000000000000000000, 7.000000000000000000 ) ) ;
#227 = PLANE ( 'NONE',  #264 ) ;
#228 = CARTESIAN_POINT ( 'NONE',  ( -11.00000000000000000, 0.000000000000000000, 0.000000000000000000 ) ) ;
#229 = AXIS2_PLACEMENT_3D ( 'NONE', #154, #76, #200 ) ;
#230 = CC_DESIGN_APPROVAL ( #172, ( #6 ) ) ;
#231 = COORDINATED_UNIVERSAL_TIME_OFFSET ( 1, 0, .AHEAD. ) ;
#232 = ORIENTED_EDGE ( 'NONE', *, *, #137, .F. ) ;
#233 = PERSON_AND_ORGANIZATION_ROLE ( 'creator' ) ;
#234 = ADVANCED_FACE ( 'NONE', ( #29 ), #224, .T. ) ;
#235 = AXIS2_PLACEMENT_3D ( 'NONE', #226, #178, #274 ) ;
#236 = APPROVAL_STATUS ( 'not_yet_approved' ) ;
#237 = AXIS2_PLACEMENT_3D ( 'NONE', #98, #197, #292 ) ;
#238 = LINE ( 'NONE', #265, #109 ) ;
#239 = DIRECTION ( 'NONE',  ( -1.000000000000000000, 0.000000000000000000, 0.000000000000000000 ) ) ;
#240 = EDGE_LOOP ( 'NONE', ( #94, #213 ) ) ;
#241 = CARTESIAN_POINT ( 'NONE',  ( 0.000000000000000000, 0.000000000000000000, 7.000000000000000000 ) ) ;
#242 = ORIENTED_EDGE ( 'NONE', *, *, #116, .F. ) ;
#243 = AXIS2_PLACEMENT_3D ( 'NONE', #289, #284, #43 ) ;
#244 = VERTEX_POINT ( 'NONE', #70 ) ;
#245 = APPLICATION_PROTOCOL_DEFINITION ( 'international standard', 'config_control_design', 1994, #207 ) ;
#246 = APPROVAL_PERSON_ORGANIZATION ( #88, #64, #210 ) ;
#247 = CYLINDRICAL_SURFACE ( 'NONE', #131, 11.00000000000000000 ) ;
#248 = LOCAL_TIME ( 11, 37, 30.00000000000000000, #280 ) ;
#249 = DIRECTION ( 'NONE',  ( 0.000000000000000000, 0.000000000000000000, 1.000000000000000000 ) ) ;
#250 = CIRCLE ( 'NONE', #243, 8.200000000000001066 ) ;
#251 = CARTESIAN_POINT ( 'NONE',  ( 0.000000000000000000, 0.000000000000000000, 7.199999999999984190 ) ) ;
#252 = CARTESIAN_POINT ( 'NONE',  ( -8.200000000000001066, 1.004210375300829674E-15, 7.199999999999984190 ) ) ;
#253 = VECTOR ( 'NONE', #189, 1000.000000000000000 ) ;
#254 = CARTESIAN_POINT ( 'NONE',  ( -8.200000000000001066, 1.004210375300829674E-15, 6.999999999999992006 ) ) ;
#255 = PRODUCT_DEFINITION ( 'NEZNÁMÝ', '', #121, #160 ) ;
#256 = ORIENTED_EDGE ( 'NONE', *, *, #185, .T. ) ;
#257 = APPROVAL_DATE_TIME ( #108, #172 ) ;
#258 = LOCAL_TIME ( 11, 37, 30.00000000000000000, #231 ) ;
#259 = UNCERTAINTY_MEASURE_WITH_UNIT (LENGTH_MEASURE( 1.000000000000000082E-05 ), #283, 'distance_accuracy_value', 'NONE');
#260 = ORIENTED_EDGE ( 'NONE', *, *, #130, .T. ) ;
#261 = ADVANCED_FACE ( 'NONE', ( #45 ), #191, .T. ) ;
#262 = DIRECTION ( 'NONE',  ( -0.000000000000000000, -0.000000000000000000, -1.000000000000000000 ) ) ;
#263 = CARTESIAN_POINT ( 'NONE',  ( -11.00000000000000000, 0.000000000000000000, 7.000000000000000000 ) ) ;
#264 = AXIS2_PLACEMENT_3D ( 'NONE', #104, #249, #55 ) ;
#265 = CARTESIAN_POINT ( 'NONE',  ( -11.00000000000000000, 0.000000000000000000, 7.000000000000000000 ) ) ;
#266 = DIRECTION ( 'NONE',  ( 0.000000000000000000, 0.000000000000000000, 1.000000000000000000 ) ) ;
#267 = VERTEX_POINT ( 'NONE', #115 ) ;
#268 = PERSON_AND_ORGANIZATION_ROLE ( 'design_owner' ) ;
#269 = CIRCLE ( 'NONE', #222, 11.00000000000000000 ) ;
#270 = DIRECTION ( 'NONE',  ( 0.000000000000000000, 0.000000000000000000, 1.000000000000000000 ) ) ;
#271 = CARTESIAN_POINT ( 'NONE',  ( 0.000000000000000000, 0.000000000000000000, 7.199999999999984190 ) ) ;
#272 = ADVANCED_FACE ( 'NONE', ( #281 ), #217, .F. ) ;
#273 = DIRECTION ( 'NONE',  ( 1.000000000000000000, 0.000000000000000000, 0.000000000000000000 ) ) ;
#274 = DIRECTION ( 'NONE',  ( 1.000000000000000000, 0.000000000000000000, 0.000000000000000000 ) ) ;
#275 = FACE_OUTER_BOUND ( 'NONE', #51, .T. ) ;
#276 = EDGE_CURVE ( 'NONE', #100, #267, #20, .T. ) ;
#277 = ORIENTED_EDGE ( 'NONE', *, *, #130, .F. ) ;
#278 = APPROVAL_ROLE ( '' ) ;
#279 = PERSON_AND_ORGANIZATION ( #221, #183 ) ;
#280 = COORDINATED_UNIVERSAL_TIME_OFFSET ( 1, 0, .AHEAD. ) ;
#281 = FACE_OUTER_BOUND ( 'NONE', #69, .T. ) ;
#282 = DIRECTION ( 'NONE',  ( -0.000000000000000000, -0.000000000000000000, -1.000000000000000000 ) ) ;
#283 =( LENGTH_UNIT ( ) NAMED_UNIT ( * ) SI_UNIT ( .MILLI., .METRE. ) );
#284 = DIRECTION ( 'NONE',  ( -0.000000000000000000, -0.000000000000000000, -1.000000000000000000 ) ) ;
#285 = CC_DESIGN_DATE_AND_TIME_ASSIGNMENT ( #63, #186, ( #6 ) ) ;
#286 = CC_DESIGN_APPROVAL ( #64, ( #121 ) ) ;
#287 = VERTEX_POINT ( 'NONE', #22 ) ;
#288 = APPLICATION_PROTOCOL_DEFINITION ( 'international standard', 'config_control_design', 1994, #161 ) ;
#289 = CARTESIAN_POINT ( 'NONE',  ( 0.000000000000000000, 0.000000000000000000, 7.000000000000000000 ) ) ;
#290 = AXIS2_PLACEMENT_3D ( 'NONE', #72, #270, #27 ) ;
#291 = ORIENTED_EDGE ( 'NONE', *, *, #99, .T. ) ;
#292 = DIRECTION ( 'NONE',  ( 1.000000000000000000, 0.000000000000000000, 0.000000000000000000 ) ) ;
#293 = CARTESIAN_POINT ( 'NONE',  ( 0.000000000000000000, 0.000000000000000000, 1006.999999999999886 ) ) ;
#294 = DIRECTION ( 'NONE',  ( 1.000000000000000000, 0.000000000000000000, 0.000000000000000000 ) ) ;
#295 = LINE ( 'NONE', #173, #15 ) ;
#296 = AXIS2_PLACEMENT_3D ( 'NONE', #199, #164, #170 ) ;
#297 = CC_DESIGN_PERSON_AND_ORGANIZATION_ASSIGNMENT ( #279, #87, ( #121 ) ) ;
#298 = PERSON_AND_ORGANIZATION ( #221, #183 ) ;
#299 = PERSON_AND_ORGANIZATION_ROLE ( 'creator' ) ;
#300 = CALENDAR_DATE ( 2022, 7, 7 ) ;
#301 = EDGE_CURVE ( 'NONE', #244, #82, #162, .T. ) ;
#302 = SECURITY_CLASSIFICATION_LEVEL ( 'unclassified' ) ;
#303 = AXIS2_PLACEMENT_3D ( 'NONE', #251, #57, #128 ) ;
#304 = DIRECTION ( 'NONE',  ( -0.000000000000000000, -0.000000000000000000, -1.000000000000000000 ) ) ;
#305 = PLANE ( 'NONE',  #84 ) ;
#306 = DIRECTION ( 'NONE',  ( 1.000000000000000000, 0.000000000000000000, 0.000000000000000000 ) ) ;
#307 = ORIENTED_EDGE ( 'NONE', *, *, #10, .F. ) ;
ENDSEC;
END-ISO-10303-21;
