ISO-10303-21;
HEADER;
FILE_DESCRIPTION (( 'STEP AP203' ),
    '1' );
FILE_NAME ('30ca.STEP',
    '2022-07-07T09:50:17',
    ( '' ),
    ( '' ),
    'SwSTEP 2.0',
    'SolidWorks 2019',
    '' );
FILE_SCHEMA (( 'CONFIG_CONTROL_DESIGN' ));
ENDSEC;

DATA;
#1 = APPROVAL_PERSON_ORGANIZATION ( #9, #123, #172 ) ;
#2 = EDGE_CURVE ( 'NONE', #34, #229, #131, .T. ) ;
#3 = CALENDAR_DATE ( 2022, 7, 7 ) ;
#4 = AXIS2_PLACEMENT_3D ( 'NONE', #137, #44, #72 ) ;
#5 = ORGANIZATION ( 'NEURÈENÝ', 'NEURÈENÝ', '' ) ;
#6 = EDGE_CURVE ( 'NONE', #148, #174, #109, .T. ) ;
#7 = APPROVAL_ROLE ( '' ) ;
#8 = LINE ( 'NONE', #175, #103 ) ;
#9 = PERSON_AND_ORGANIZATION ( #169, #5 ) ;
#10 = DIRECTION ( 'NONE',  ( 0.000000000000000000, 0.000000000000000000, 1.000000000000000000 ) ) ;
#11 = PERSON_AND_ORGANIZATION ( #169, #5 ) ;
#12 = CYLINDRICAL_SURFACE ( 'NONE', #16, 8.000000000000000000 ) ;
#13 = ORIENTED_EDGE ( 'NONE', *, *, #287, .F. ) ;
#14 = CARTESIAN_POINT ( 'NONE',  ( 0.000000000000000000, 0.000000000000000000, 5.000000000000000000 ) ) ;
#15 = DIRECTION ( 'NONE',  ( -1.000000000000000000, 1.224646799147353454E-16, 0.000000000000000000 ) ) ;
#16 = AXIS2_PLACEMENT_3D ( 'NONE', #102, #61, #201 ) ;
#17 = CARTESIAN_POINT ( 'NONE',  ( 0.000000000000000000, 0.000000000000000000, 5.000000000000000000 ) ) ;
#18 = PLANE ( 'NONE',  #190 ) ;
#19 = PLANE ( 'NONE',  #145 ) ;
#20 = EDGE_CURVE ( 'NONE', #149, #126, #271, .T. ) ;
#21 = AXIS2_PLACEMENT_3D ( 'NONE', #157, #59, #294 ) ;
#22 = COORDINATED_UNIVERSAL_TIME_OFFSET ( 1, 0, .AHEAD. ) ;
#23 = PERSON_AND_ORGANIZATION ( #169, #5 ) ;
#24 = VERTEX_POINT ( 'NONE', #205 ) ;
#25 = DATE_TIME_ROLE ( 'classification_date' ) ;
#26 = PRODUCT ( '30ca', '30ca', '', ( #223 ) ) ;
#27 = ORIENTED_EDGE ( 'NONE', *, *, #114, .T. ) ;
#28 = EDGE_CURVE ( 'NONE', #229, #34, #116, .T. ) ;
#29 = CALENDAR_DATE ( 2022, 7, 7 ) ;
#30 = ORIENTED_EDGE ( 'NONE', *, *, #105, .F. ) ;
#31 = AXIS2_PLACEMENT_3D ( 'NONE', #87, #82, #101 ) ;
#32 = PERSON_AND_ORGANIZATION ( #169, #5 ) ;
#33 = ORIENTED_EDGE ( 'NONE', *, *, #161, .T. ) ;
#34 = VERTEX_POINT ( 'NONE', #254 ) ;
#35 = VERTEX_POINT ( 'NONE', #42 ) ;
#36 = FACE_OUTER_BOUND ( 'NONE', #277, .T. ) ;
#37 = CARTESIAN_POINT ( 'NONE',  ( 0.000000000000000000, 0.000000000000000000, 0.000000000000000000 ) ) ;
#38 = EDGE_CURVE ( 'NONE', #174, #229, #8, .T. ) ;
#39 = CIRCLE ( 'NONE', #192, 5.250000000000000888 ) ;
#40 = CYLINDRICAL_SURFACE ( 'NONE', #31, 5.250000000000000888 ) ;
#41 = ORIENTED_EDGE ( 'NONE', *, *, #2, .F. ) ;
#42 = CARTESIAN_POINT ( 'NONE',  ( 8.000000000000000000, 9.797174393178825657E-16, 0.000000000000000000 ) ) ;
#43 = EDGE_CURVE ( 'NONE', #288, #35, #98, .T. ) ;
#44 = DIRECTION ( 'NONE',  ( -0.000000000000000000, -0.000000000000000000, -1.000000000000000000 ) ) ;
#45 = CYLINDRICAL_SURFACE ( 'NONE', #4, 5.250000000000000888 ) ;
#46 = LINE ( 'NONE', #134, #141 ) ;
#47 = LOCAL_TIME ( 11, 50, 17.00000000000000000, #194 ) ;
#48 = EDGE_CURVE ( 'NONE', #35, #221, #282, .T. ) ;
#49 = DATE_AND_TIME ( #3, #216 ) ;
#50 = PERSON_AND_ORGANIZATION ( #169, #5 ) ;
#51 = AXIS2_PLACEMENT_3D ( 'NONE', #60, #274, #231 ) ;
#52 = EDGE_LOOP ( 'NONE', ( #181, #27 ) ) ;
#53 = APPROVAL_DATE_TIME ( #49, #123 ) ;
#54 = EDGE_CURVE ( 'NONE', #221, #35, #158, .T. ) ;
#55 = ORIENTED_EDGE ( 'NONE', *, *, #237, .F. ) ;
#56 = ORIENTED_EDGE ( 'NONE', *, *, #114, .F. ) ;
#57 = ORIENTED_EDGE ( 'NONE', *, *, #38, .T. ) ;
#58 = CARTESIAN_POINT ( 'NONE',  ( 0.000000000000000000, 0.000000000000000000, 5.199999999999982414 ) ) ;
#59 = DIRECTION ( 'NONE',  ( 0.000000000000000000, 0.000000000000000000, 1.000000000000000000 ) ) ;
#60 = CARTESIAN_POINT ( 'NONE',  ( 0.000000000000000000, 0.000000000000000000, 5.000000000000000000 ) ) ;
#61 = DIRECTION ( 'NONE',  ( -0.000000000000000000, -0.000000000000000000, -1.000000000000000000 ) ) ;
#62 = PRODUCT_DEFINITION_SHAPE ( 'NONE', 'NONE',  #209 ) ;
#63 = CYLINDRICAL_SURFACE ( 'NONE', #51, 8.000000000000000000 ) ;
#64 = ORIENTED_EDGE ( 'NONE', *, *, #187, .F. ) ;
#65 =( NAMED_UNIT ( * ) PLANE_ANGLE_UNIT ( ) SI_UNIT ( $, .RADIAN. ) );
#66 = ORIENTED_EDGE ( 'NONE', *, *, #287, .T. ) ;
#67 = ADVANCED_FACE ( 'NONE', ( #224 ), #12, .T. ) ;
#68 = FACE_BOUND ( 'NONE', #222, .T. ) ;
#69 = CARTESIAN_POINT ( 'NONE',  ( 0.000000000000000000, 0.000000000000000000, 320.0000000000000000 ) ) ;
#70 = CC_DESIGN_APPROVAL ( #123, ( #153 ) ) ;
#71 = DIRECTION ( 'NONE',  ( 0.000000000000000000, 0.000000000000000000, 1.000000000000000000 ) ) ;
#72 = DIRECTION ( 'NONE',  ( -1.000000000000000000, 0.000000000000000000, 0.000000000000000000 ) ) ;
#73 = CLOSED_SHELL ( 'NONE', ( #307, #252, #67, #304, #166, #261, #291, #240, #298 ) ) ;
#74 = COORDINATED_UNIVERSAL_TIME_OFFSET ( 1, 0, .AHEAD. ) ;
#75 = ORIENTED_EDGE ( 'NONE', *, *, #28, .F. ) ;
#76 = PERSON_AND_ORGANIZATION_ROLE ( 'creator' ) ;
#77 = SHAPE_DEFINITION_REPRESENTATION ( #62, #86 ) ;
#78 = DIRECTION ( 'NONE',  ( 1.000000000000000000, 0.000000000000000000, 0.000000000000000000 ) ) ;
#79 = DATE_AND_TIME ( #118, #47 ) ;
#80 = DIRECTION ( 'NONE',  ( -0.000000000000000000, -0.000000000000000000, -1.000000000000000000 ) ) ;
#81 = AXIS2_PLACEMENT_3D ( 'NONE', #178, #198, #78 ) ;
#82 = DIRECTION ( 'NONE',  ( -0.000000000000000000, -0.000000000000000000, -1.000000000000000000 ) ) ;
#83 = ORIENTED_EDGE ( 'NONE', *, *, #20, .F. ) ;
#84 = DIRECTION ( 'NONE',  ( 1.000000000000000000, 0.000000000000000000, 0.000000000000000000 ) ) ;
#85 = EDGE_LOOP ( 'NONE', ( #41, #66, #55, #276 ) ) ;
#86 = ADVANCED_BREP_SHAPE_REPRESENTATION ( '30ca', ( #142, #95 ), #111 ) ;
#87 = CARTESIAN_POINT ( 'NONE',  ( 0.000000000000000000, 0.000000000000000000, 320.0000000000000000 ) ) ;
#88 = CARTESIAN_POINT ( 'NONE',  ( 0.000000000000000000, 0.000000000000000000, 5.199999999999982414 ) ) ;
#89 = AXIS2_PLACEMENT_3D ( 'NONE', #17, #233, #92 ) ;
#90 = DIRECTION ( 'NONE',  ( 1.000000000000000000, 0.000000000000000000, -0.000000000000000000 ) ) ;
#91 = CARTESIAN_POINT ( 'NONE',  ( 5.250000000000000888, 6.429395695523605139E-16, 5.199999999999982414 ) ) ;
#92 = DIRECTION ( 'NONE',  ( 1.000000000000000000, 0.000000000000000000, 0.000000000000000000 ) ) ;
#93 = APPROVAL ( #244, 'NEURÈENÝ' ) ;
#94 = DIRECTION ( 'NONE',  ( -0.000000000000000000, -0.000000000000000000, -1.000000000000000000 ) ) ;
#95 = AXIS2_PLACEMENT_3D ( 'NONE', #204, #107, #207 ) ;
#96 = CIRCLE ( 'NONE', #89, 8.000000000000000000 ) ;
#97 = APPROVAL_DATE_TIME ( #262, #93 ) ;
#98 = LINE ( 'NONE', #273, #110 ) ;
#99 = PERSON_AND_ORGANIZATION_ROLE ( 'design_supplier' ) ;
#100 = EDGE_LOOP ( 'NONE', ( #33, #220 ) ) ;
#101 = DIRECTION ( 'NONE',  ( -1.000000000000000000, 0.000000000000000000, 0.000000000000000000 ) ) ;
#102 = CARTESIAN_POINT ( 'NONE',  ( 0.000000000000000000, 0.000000000000000000, 5.000000000000000000 ) ) ;
#103 = VECTOR ( 'NONE', #275, 1000.000000000000000 ) ;
#104 = DIRECTION ( 'NONE',  ( 0.000000000000000000, 0.000000000000000000, 1.000000000000000000 ) ) ;
#105 = EDGE_CURVE ( 'NONE', #288, #24, #263, .T. ) ;
#106 = ORIENTED_EDGE ( 'NONE', *, *, #6, .F. ) ;
#107 = DIRECTION ( 'NONE',  ( 0.000000000000000000, 0.000000000000000000, 1.000000000000000000 ) ) ;
#108 = CARTESIAN_POINT ( 'NONE',  ( 8.000000000000000000, 9.797174393178825657E-16, 5.000000000000000000 ) ) ;
#109 = CIRCLE ( 'NONE', #21, 5.250000000000000888 ) ;
#110 = VECTOR ( 'NONE', #154, 1000.000000000000000 ) ;
#111 =( GEOMETRIC_REPRESENTATION_CONTEXT ( 3 ) GLOBAL_UNCERTAINTY_ASSIGNED_CONTEXT ( ( #136 ) ) GLOBAL_UNIT_ASSIGNED_CONTEXT ( ( #180, #65, #129 ) ) REPRESENTATION_CONTEXT ( 'NONE', 'WORKASPACE' ) );
#112 = CARTESIAN_POINT ( 'NONE',  ( -5.250000000000000888, 0.000000000000000000, 320.0000000000000000 ) ) ;
#113 = CARTESIAN_POINT ( 'NONE',  ( 0.000000000000000000, 0.000000000000000000, 0.000000000000000000 ) ) ;
#114 = EDGE_CURVE ( 'NONE', #174, #148, #39, .T. ) ;
#115 = CARTESIAN_POINT ( 'NONE',  ( 5.450000000000001066, 0.000000000000000000, 4.999999999999991118 ) ) ;
#116 = CIRCLE ( 'NONE', #243, 5.250000000000000888 ) ;
#117 = EDGE_CURVE ( 'NONE', #24, #221, #302, .T. ) ;
#118 = CALENDAR_DATE ( 2022, 7, 7 ) ;
#119 = EDGE_LOOP ( 'NONE', ( #159, #106, #241, #196 ) ) ;
#120 = PERSON_AND_ORGANIZATION ( #169, #5 ) ;
#121 = CIRCLE ( 'NONE', #176, 0.1999999999999996503 ) ;
#122 = ORIENTED_EDGE ( 'NONE', *, *, #138, .T. ) ;
#123 = APPROVAL ( #146, 'NEURÈENÝ' ) ;
#124 = PERSON_AND_ORGANIZATION ( #169, #5 ) ;
#125 = EDGE_LOOP ( 'NONE', ( #292, #183 ) ) ;
#126 = VERTEX_POINT ( 'NONE', #115 ) ;
#127 = PERSON_AND_ORGANIZATION ( #169, #5 ) ;
#128 = DIRECTION ( 'NONE',  ( 1.000000000000000000, 0.000000000000000000, 0.000000000000000000 ) ) ;
#129 =( NAMED_UNIT ( * ) SI_UNIT ( $, .STERADIAN. ) SOLID_ANGLE_UNIT ( ) );
#130 = DIRECTION ( 'NONE',  ( 0.000000000000000000, 0.000000000000000000, 1.000000000000000000 ) ) ;
#131 = CIRCLE ( 'NONE', #81, 5.250000000000000888 ) ;
#132 = EDGE_LOOP ( 'NONE', ( #30, #173, #168, #270 ) ) ;
#133 = DIRECTION ( 'NONE',  ( 0.000000000000000000, 0.000000000000000000, 1.000000000000000000 ) ) ;
#134 = CARTESIAN_POINT ( 'NONE',  ( -5.250000000000000888, 0.000000000000000000, 320.0000000000000000 ) ) ;
#135 = AXIS2_PLACEMENT_3D ( 'NONE', #297, #290, #249 ) ;
#136 = UNCERTAINTY_MEASURE_WITH_UNIT (LENGTH_MEASURE( 1.000000000000000082E-05 ), #180, 'distance_accuracy_value', 'NONE');
#137 = CARTESIAN_POINT ( 'NONE',  ( 0.000000000000000000, 0.000000000000000000, 320.0000000000000000 ) ) ;
#138 = EDGE_CURVE ( 'NONE', #229, #126, #167, .T. ) ;
#139 = CARTESIAN_POINT ( 'NONE',  ( 5.250000000000000888, 6.429395695523605139E-16, 320.0000000000000000 ) ) ;
#140 = CC_DESIGN_PERSON_AND_ORGANIZATION_ASSIGNMENT ( #23, #293, ( #153 ) ) ;
#141 = VECTOR ( 'NONE', #189, 1000.000000000000000 ) ;
#142 = MANIFOLD_SOLID_BREP ( 'Zaoblit1', #73 ) ;
#143 = AXIS2_PLACEMENT_3D ( 'NONE', #37, #104, #128 ) ;
#144 = APPLICATION_CONTEXT ( 'configuration controlled 3d designs of mechanical parts and assemblies' ) ;
#145 = AXIS2_PLACEMENT_3D ( 'NONE', #69, #256, #284 ) ;
#146 = APPROVAL_STATUS ( 'not_yet_approved' ) ;
#147 = CC_DESIGN_PERSON_AND_ORGANIZATION_ASSIGNMENT ( #50, #289, ( #209 ) ) ;
#148 = VERTEX_POINT ( 'NONE', #112 ) ;
#149 = VERTEX_POINT ( 'NONE', #306 ) ;
#150 = CC_DESIGN_PERSON_AND_ORGANIZATION_ASSIGNMENT ( #124, #99, ( #215 ) ) ;
#151 = AXIS2_PLACEMENT_3D ( 'NONE', #300, #130, #226 ) ;
#152 = EDGE_LOOP ( 'NONE', ( #56, #57, #245, #64 ) ) ;
#153 = SECURITY_CLASSIFICATION ( '', '', #267 ) ;
#154 = DIRECTION ( 'NONE',  ( -0.000000000000000000, -0.000000000000000000, -1.000000000000000000 ) ) ;
#155 = DIRECTION ( 'NONE',  ( 0.000000000000000000, 0.000000000000000000, 1.000000000000000000 ) ) ;
#156 = ORIENTED_EDGE ( 'NONE', *, *, #117, .T. ) ;
#157 = CARTESIAN_POINT ( 'NONE',  ( 0.000000000000000000, 0.000000000000000000, 320.0000000000000000 ) ) ;
#158 = CIRCLE ( 'NONE', #151, 8.000000000000000000 ) ;
#159 = ORIENTED_EDGE ( 'NONE', *, *, #38, .F. ) ;
#160 = FACE_OUTER_BOUND ( 'NONE', #100, .T. ) ;
#161 = EDGE_CURVE ( 'NONE', #24, #288, #96, .T. ) ;
#162 = DIRECTION ( 'NONE',  ( 1.000000000000000000, 0.000000000000000000, 0.000000000000000000 ) ) ;
#163 = TOROIDAL_SURFACE ( 'NONE', #265, 5.450000000000001066, 0.2000000000000000111 ) ;
#164 = DIRECTION ( 'NONE',  ( 0.000000000000000000, 0.000000000000000000, -1.000000000000000000 ) ) ;
#165 = APPLICATION_CONTEXT ( 'configuration controlled 3d designs of mechanical parts and assemblies' ) ;
#166 = ADVANCED_FACE ( 'NONE', ( #68, #160 ), #208, .T. ) ;
#167 = CIRCLE ( 'NONE', #239, 0.1999999999999996503 ) ;
#168 = ORIENTED_EDGE ( 'NONE', *, *, #48, .T. ) ;
#169 = PERSON ( 'NEURÈENÝ', 'NEURÈENÝ', 'NEURÈENÝ', ('NEURÈENÝ'), ('NEURÈENÝ'), ('NEURÈENÝ') ) ;
#170 = APPROVAL_DATE_TIME ( #238, #259 ) ;
#171 = ORIENTED_EDGE ( 'NONE', *, *, #43, .F. ) ;
#172 = APPROVAL_ROLE ( '' ) ;
#173 = ORIENTED_EDGE ( 'NONE', *, *, #43, .T. ) ;
#174 = VERTEX_POINT ( 'NONE', #139 ) ;
#175 = CARTESIAN_POINT ( 'NONE',  ( 5.250000000000000888, 6.429395695523605139E-16, 320.0000000000000000 ) ) ;
#176 = AXIS2_PLACEMENT_3D ( 'NONE', #305, #232, #15 ) ;
#177 = FACE_OUTER_BOUND ( 'NONE', #206, .T. ) ;
#178 = CARTESIAN_POINT ( 'NONE',  ( 0.000000000000000000, 0.000000000000000000, 5.199999999999982414 ) ) ;
#179 = CC_DESIGN_DATE_AND_TIME_ASSIGNMENT ( #79, #25, ( #153 ) ) ;
#180 =( LENGTH_UNIT ( ) NAMED_UNIT ( * ) SI_UNIT ( .MILLI., .METRE. ) );
#181 = ORIENTED_EDGE ( 'NONE', *, *, #6, .T. ) ;
#182 = DIRECTION ( 'NONE',  ( 1.000000000000000000, 0.000000000000000000, 0.000000000000000000 ) ) ;
#183 = ORIENTED_EDGE ( 'NONE', *, *, #48, .F. ) ;
#184 = CC_DESIGN_APPROVAL ( #93, ( #215 ) ) ;
#185 = LOCAL_TIME ( 11, 50, 17.00000000000000000, #22 ) ;
#186 = CARTESIAN_POINT ( 'NONE',  ( 0.000000000000000000, 0.000000000000000000, 320.0000000000000000 ) ) ;
#187 = EDGE_CURVE ( 'NONE', #148, #34, #46, .T. ) ;
#188 = DIRECTION ( 'NONE',  ( 1.000000000000000000, 0.000000000000000000, 0.000000000000000000 ) ) ;
#189 = DIRECTION ( 'NONE',  ( -0.000000000000000000, -0.000000000000000000, -1.000000000000000000 ) ) ;
#190 = AXIS2_PLACEMENT_3D ( 'NONE', #113, #133, #213 ) ;
#191 = FACE_OUTER_BOUND ( 'NONE', #52, .T. ) ;
#192 = AXIS2_PLACEMENT_3D ( 'NONE', #186, #71, #162 ) ;
#193 = AXIS2_PLACEMENT_3D ( 'NONE', #225, #155, #182 ) ;
#194 = COORDINATED_UNIVERSAL_TIME_OFFSET ( 1, 0, .AHEAD. ) ;
#195 = ORIENTED_EDGE ( 'NONE', *, *, #20, .T. ) ;
#196 = ORIENTED_EDGE ( 'NONE', *, *, #2, .T. ) ;
#197 = CALENDAR_DATE ( 2022, 7, 7 ) ;
#198 = DIRECTION ( 'NONE',  ( 0.000000000000000000, 0.000000000000000000, 1.000000000000000000 ) ) ;
#199 = AXIS2_PLACEMENT_3D ( 'NONE', #14, #80, #301 ) ;
#200 = FACE_OUTER_BOUND ( 'NONE', #85, .T. ) ;
#201 = DIRECTION ( 'NONE',  ( -1.000000000000000000, 0.000000000000000000, 0.000000000000000000 ) ) ;
#202 = LOCAL_TIME ( 11, 50, 17.00000000000000000, #74 ) ;
#203 = PRODUCT_RELATED_PRODUCT_CATEGORY ( 'detail', '', ( #26 ) ) ;
#204 = CARTESIAN_POINT ( 'NONE',  ( 0.000000000000000000, 0.000000000000000000, 0.000000000000000000 ) ) ;
#205 = CARTESIAN_POINT ( 'NONE',  ( -8.000000000000000000, 0.000000000000000000, 5.000000000000000000 ) ) ;
#206 = EDGE_LOOP ( 'NONE', ( #13, #75, #122, #83 ) ) ;
#207 = DIRECTION ( 'NONE',  ( 1.000000000000000000, 0.000000000000000000, 0.000000000000000000 ) ) ;
#208 = PLANE ( 'NONE',  #260 ) ;
#209 = PRODUCT_DEFINITION ( 'NEZNÁMÝ', '', #215, #212 ) ;
#210 = TOROIDAL_SURFACE ( 'NONE', #193, 5.450000000000001066, 0.2000000000000000111 ) ;
#211 = CARTESIAN_POINT ( 'NONE',  ( 0.000000000000000000, 0.000000000000000000, 5.000000000000000000 ) ) ;
#212 = DESIGN_CONTEXT ( 'detailed design', #165, 'design' ) ;
#213 = DIRECTION ( 'NONE',  ( 1.000000000000000000, 0.000000000000000000, -0.000000000000000000 ) ) ;
#214 = DIRECTION ( 'NONE',  ( 0.000000000000000000, -1.000000000000000000, 0.000000000000000000 ) ) ;
#215 = PRODUCT_DEFINITION_FORMATION_WITH_SPECIFIED_SOURCE ( 'LIBOVOLNÝ', '', #26, .NOT_KNOWN. ) ;
#216 = LOCAL_TIME ( 11, 50, 17.00000000000000000, #242 ) ;
#217 = APPROVAL_ROLE ( '' ) ;
#218 = VECTOR ( 'NONE', #281, 1000.000000000000000 ) ;
#219 = CALENDAR_DATE ( 2022, 7, 7 ) ;
#220 = ORIENTED_EDGE ( 'NONE', *, *, #105, .T. ) ;
#221 = VERTEX_POINT ( 'NONE', #303 ) ;
#222 = EDGE_LOOP ( 'NONE', ( #250, #195 ) ) ;
#223 = MECHANICAL_CONTEXT ( 'NONE', #144, 'mechanical' ) ;
#224 = FACE_OUTER_BOUND ( 'NONE', #132, .T. ) ;
#225 = CARTESIAN_POINT ( 'NONE',  ( 0.000000000000000000, 0.000000000000000000, 5.199999999999982414 ) ) ;
#226 = DIRECTION ( 'NONE',  ( 1.000000000000000000, 0.000000000000000000, 0.000000000000000000 ) ) ;
#227 = CC_DESIGN_SECURITY_CLASSIFICATION ( #153, ( #215 ) ) ;
#228 = FACE_OUTER_BOUND ( 'NONE', #119, .T. ) ;
#229 = VERTEX_POINT ( 'NONE', #91 ) ;
#230 = CC_DESIGN_DATE_AND_TIME_ASSIGNMENT ( #268, #266, ( #209 ) ) ;
#231 = DIRECTION ( 'NONE',  ( -1.000000000000000000, 0.000000000000000000, 0.000000000000000000 ) ) ;
#232 = DIRECTION ( 'NONE',  ( 1.224646799147353207E-16, 1.000000000000000000, -0.000000000000000000 ) ) ;
#233 = DIRECTION ( 'NONE',  ( 0.000000000000000000, 0.000000000000000000, 1.000000000000000000 ) ) ;
#234 = FACE_OUTER_BOUND ( 'NONE', #125, .T. ) ;
#235 = CARTESIAN_POINT ( 'NONE',  ( 0.000000000000000000, 0.000000000000000000, 5.000000000000000000 ) ) ;
#236 = CC_DESIGN_PERSON_AND_ORGANIZATION_ASSIGNMENT ( #127, #272, ( #26 ) ) ;
#237 = EDGE_CURVE ( 'NONE', #126, #149, #278, .T. ) ;
#238 = DATE_AND_TIME ( #219, #202 ) ;
#239 = AXIS2_PLACEMENT_3D ( 'NONE', #280, #214, #164 ) ;
#240 = ADVANCED_FACE ( 'NONE', ( #191 ), #19, .T. ) ;
#241 = ORIENTED_EDGE ( 'NONE', *, *, #187, .T. ) ;
#242 = COORDINATED_UNIVERSAL_TIME_OFFSET ( 1, 0, .AHEAD. ) ;
#243 = AXIS2_PLACEMENT_3D ( 'NONE', #88, #10, #248 ) ;
#244 = APPROVAL_STATUS ( 'not_yet_approved' ) ;
#245 = ORIENTED_EDGE ( 'NONE', *, *, #28, .T. ) ;
#246 = CC_DESIGN_PERSON_AND_ORGANIZATION_ASSIGNMENT ( #32, #76, ( #215 ) ) ;
#247 = APPLICATION_PROTOCOL_DEFINITION ( 'international standard', 'config_control_design', 1994, #165 ) ;
#248 = DIRECTION ( 'NONE',  ( 1.000000000000000000, 0.000000000000000000, 0.000000000000000000 ) ) ;
#249 = DIRECTION ( 'NONE',  ( 1.000000000000000000, 0.000000000000000000, 0.000000000000000000 ) ) ;
#250 = ORIENTED_EDGE ( 'NONE', *, *, #237, .T. ) ;
#251 = APPROVAL_PERSON_ORGANIZATION ( #120, #93, #7 ) ;
#252 = ADVANCED_FACE ( 'NONE', ( #255 ), #45, .T. ) ;
#253 = APPLICATION_PROTOCOL_DEFINITION ( 'international standard', 'config_control_design', 1994, #144 ) ;
#254 = CARTESIAN_POINT ( 'NONE',  ( -5.250000000000000888, 0.000000000000000000, 5.199999999999982414 ) ) ;
#255 = FACE_OUTER_BOUND ( 'NONE', #152, .T. ) ;
#256 = DIRECTION ( 'NONE',  ( 0.000000000000000000, 0.000000000000000000, 1.000000000000000000 ) ) ;
#257 = LOCAL_TIME ( 11, 50, 17.00000000000000000, #286 ) ;
#258 = DIRECTION ( 'NONE',  ( 0.000000000000000000, 0.000000000000000000, 1.000000000000000000 ) ) ;
#259 = APPROVAL ( #296, 'NEURÈENÝ' ) ;
#260 = AXIS2_PLACEMENT_3D ( 'NONE', #211, #258, #90 ) ;
#261 = ADVANCED_FACE ( 'NONE', ( #234 ), #18, .F. ) ;
#262 = DATE_AND_TIME ( #197, #257 ) ;
#263 = CIRCLE ( 'NONE', #135, 8.000000000000000000 ) ;
#264 = ORIENTED_EDGE ( 'NONE', *, *, #161, .F. ) ;
#265 = AXIS2_PLACEMENT_3D ( 'NONE', #58, #299, #84 ) ;
#266 = DATE_TIME_ROLE ( 'creation_date' ) ;
#267 = SECURITY_CLASSIFICATION_LEVEL ( 'unclassified' ) ;
#268 = DATE_AND_TIME ( #29, #185 ) ;
#269 = ORIENTED_EDGE ( 'NONE', *, *, #54, .T. ) ;
#270 = ORIENTED_EDGE ( 'NONE', *, *, #117, .F. ) ;
#271 = CIRCLE ( 'NONE', #199, 5.450000000000001066 ) ;
#272 = PERSON_AND_ORGANIZATION_ROLE ( 'design_owner' ) ;
#273 = CARTESIAN_POINT ( 'NONE',  ( 8.000000000000000000, 9.797174393178825657E-16, 5.000000000000000000 ) ) ;
#274 = DIRECTION ( 'NONE',  ( -0.000000000000000000, -0.000000000000000000, -1.000000000000000000 ) ) ;
#275 = DIRECTION ( 'NONE',  ( -0.000000000000000000, -0.000000000000000000, -1.000000000000000000 ) ) ;
#276 = ORIENTED_EDGE ( 'NONE', *, *, #138, .F. ) ;
#277 = EDGE_LOOP ( 'NONE', ( #171, #264, #156, #269 ) ) ;
#278 = CIRCLE ( 'NONE', #283, 5.450000000000001066 ) ;
#279 = CARTESIAN_POINT ( 'NONE',  ( -8.000000000000000000, 0.000000000000000000, 5.000000000000000000 ) ) ;
#280 = CARTESIAN_POINT ( 'NONE',  ( 5.450000000000001066, 0.000000000000000000, 5.199999999999982414 ) ) ;
#281 = DIRECTION ( 'NONE',  ( -0.000000000000000000, -0.000000000000000000, -1.000000000000000000 ) ) ;
#282 = CIRCLE ( 'NONE', #143, 8.000000000000000000 ) ;
#283 = AXIS2_PLACEMENT_3D ( 'NONE', #235, #94, #188 ) ;
#284 = DIRECTION ( 'NONE',  ( 1.000000000000000000, 0.000000000000000000, -0.000000000000000000 ) ) ;
#285 = APPROVAL_PERSON_ORGANIZATION ( #11, #259, #217 ) ;
#286 = COORDINATED_UNIVERSAL_TIME_OFFSET ( 1, 0, .AHEAD. ) ;
#287 = EDGE_CURVE ( 'NONE', #34, #149, #121, .T. ) ;
#288 = VERTEX_POINT ( 'NONE', #108 ) ;
#289 = PERSON_AND_ORGANIZATION_ROLE ( 'creator' ) ;
#290 = DIRECTION ( 'NONE',  ( 0.000000000000000000, 0.000000000000000000, 1.000000000000000000 ) ) ;
#291 = ADVANCED_FACE ( 'NONE', ( #228 ), #40, .T. ) ;
#292 = ORIENTED_EDGE ( 'NONE', *, *, #54, .F. ) ;
#293 = PERSON_AND_ORGANIZATION_ROLE ( 'classification_officer' ) ;
#294 = DIRECTION ( 'NONE',  ( 1.000000000000000000, 0.000000000000000000, 0.000000000000000000 ) ) ;
#295 = CC_DESIGN_APPROVAL ( #259, ( #209 ) ) ;
#296 = APPROVAL_STATUS ( 'not_yet_approved' ) ;
#297 = CARTESIAN_POINT ( 'NONE',  ( 0.000000000000000000, 0.000000000000000000, 5.000000000000000000 ) ) ;
#298 = ADVANCED_FACE ( 'NONE', ( #177 ), #163, .F. ) ;
#299 = DIRECTION ( 'NONE',  ( 0.000000000000000000, 0.000000000000000000, 1.000000000000000000 ) ) ;
#300 = CARTESIAN_POINT ( 'NONE',  ( 0.000000000000000000, 0.000000000000000000, 0.000000000000000000 ) ) ;
#301 = DIRECTION ( 'NONE',  ( 1.000000000000000000, 0.000000000000000000, 0.000000000000000000 ) ) ;
#302 = LINE ( 'NONE', #279, #218 ) ;
#303 = CARTESIAN_POINT ( 'NONE',  ( -8.000000000000000000, 0.000000000000000000, 0.000000000000000000 ) ) ;
#304 = ADVANCED_FACE ( 'NONE', ( #36 ), #63, .T. ) ;
#305 = CARTESIAN_POINT ( 'NONE',  ( -5.450000000000001066, 6.674325055353076224E-16, 5.199999999999982414 ) ) ;
#306 = CARTESIAN_POINT ( 'NONE',  ( -5.450000000000001066, 6.674325055353076224E-16, 4.999999999999991118 ) ) ;
#307 = ADVANCED_FACE ( 'NONE', ( #200 ), #210, .F. ) ;
ENDSEC;
END-ISO-10303-21;
