ISO-10303-21;
HEADER;
FILE_DESCRIPTION (( 'STEP AP203' ),
    '1' );
FILE_NAME ('3541.STEP',
    '2022-07-07T10:14:40',
    ( '' ),
    ( '' ),
    'SwSTEP 2.0',
    'SolidWorks 2019',
    '' );
FILE_SCHEMA (( 'CONFIG_CONTROL_DESIGN' ));
ENDSEC;

DATA;
#1 = CC_DESIGN_PERSON_AND_ORGANIZATION_ASSIGNMENT ( #32, #299, ( #192 ) ) ;
#2 = DIRECTION ( 'NONE',  ( -1.000000000000000000, 1.224646799147353207E-16, 0.000000000000000000 ) ) ;
#3 = PLANE ( 'NONE',  #178 ) ;
#4 = PERSON_AND_ORGANIZATION_ROLE ( 'design_supplier' ) ;
#5 = AXIS2_PLACEMENT_3D ( 'NONE', #307, #179, #100 ) ;
#6 = COORDINATED_UNIVERSAL_TIME_OFFSET ( 1, 0, .AHEAD. ) ;
#7 = APPROVAL_ROLE ( '' ) ;
#8 = CC_DESIGN_DATE_AND_TIME_ASSIGNMENT ( #184, #180, ( #231 ) ) ;
#9 = CC_DESIGN_APPROVAL ( #145, ( #192 ) ) ;
#10 = VERTEX_POINT ( 'NONE', #212 ) ;
#11 = PERSON_AND_ORGANIZATION_ROLE ( 'design_owner' ) ;
#12 = ORIENTED_EDGE ( 'NONE', *, *, #175, .T. ) ;
#13 = AXIS2_PLACEMENT_3D ( 'NONE', #144, #124, #199 ) ;
#14 = VERTEX_POINT ( 'NONE', #303 ) ;
#15 = EDGE_CURVE ( 'NONE', #10, #33, #81, .T. ) ;
#16 = ORIENTED_EDGE ( 'NONE', *, *, #78, .T. ) ;
#17 = APPROVAL ( #252, 'NEURÈENÝ' ) ;
#18 = VECTOR ( 'NONE', #31, 1000.000000000000000 ) ;
#19 = CARTESIAN_POINT ( 'NONE',  ( 0.000000000000000000, 0.000000000000000000, 3.000000000000000000 ) ) ;
#20 = EDGE_CURVE ( 'NONE', #48, #69, #148, .T. ) ;
#21 = EDGE_LOOP ( 'NONE', ( #235, #229 ) ) ;
#22 = DIRECTION ( 'NONE',  ( 1.000000000000000000, 0.000000000000000000, 0.000000000000000000 ) ) ;
#23 = CIRCLE ( 'NONE', #65, 2.750000000000000000 ) ;
#24 = DIRECTION ( 'NONE',  ( 0.000000000000000000, 0.000000000000000000, 1.000000000000000000 ) ) ;
#25 = AXIS2_PLACEMENT_3D ( 'NONE', #46, #24, #42 ) ;
#26 = DIRECTION ( 'NONE',  ( 0.000000000000000000, 0.000000000000000000, 1.000000000000000000 ) ) ;
#27 = CARTESIAN_POINT ( 'NONE',  ( 5.000000000000000000, 6.123233995736766282E-16, 3.000000000000000000 ) ) ;
#28 = PLANE ( 'NONE',  #256 ) ;
#29 = CIRCLE ( 'NONE', #34, 5.000000000000000000 ) ;
#30 = DIRECTION ( 'NONE',  ( 0.000000000000000000, -1.000000000000000000, 0.000000000000000000 ) ) ;
#31 = DIRECTION ( 'NONE',  ( -0.000000000000000000, -0.000000000000000000, -1.000000000000000000 ) ) ;
#32 = PERSON_AND_ORGANIZATION ( #241, #90 ) ;
#33 = VERTEX_POINT ( 'NONE', #230 ) ;
#34 = AXIS2_PLACEMENT_3D ( 'NONE', #19, #166, #96 ) ;
#35 = ORIENTED_EDGE ( 'NONE', *, *, #15, .T. ) ;
#36 = COORDINATED_UNIVERSAL_TIME_OFFSET ( 1, 0, .AHEAD. ) ;
#37 = ORIENTED_EDGE ( 'NONE', *, *, #284, .F. ) ;
#38 = APPLICATION_PROTOCOL_DEFINITION ( 'international standard', 'config_control_design', 1994, #143 ) ;
#39 = CC_DESIGN_APPROVAL ( #183, ( #237 ) ) ;
#40 = ORIENTED_EDGE ( 'NONE', *, *, #246, .T. ) ;
#41 = APPROVAL_STATUS ( 'not_yet_approved' ) ;
#42 = DIRECTION ( 'NONE',  ( 1.000000000000000000, 0.000000000000000000, 0.000000000000000000 ) ) ;
#43 = ADVANCED_FACE ( 'NONE', ( #118 ), #300, .T. ) ;
#44 = DIRECTION ( 'NONE',  ( 1.000000000000000000, 0.000000000000000000, -0.000000000000000000 ) ) ;
#45 = LOCAL_TIME ( 12, 14, 40.00000000000000000, #108 ) ;
#46 = CARTESIAN_POINT ( 'NONE',  ( 0.000000000000000000, 0.000000000000000000, 3.199999999999980638 ) ) ;
#47 = DIRECTION ( 'NONE',  ( 0.000000000000000000, 0.000000000000000000, 1.000000000000000000 ) ) ;
#48 = VERTEX_POINT ( 'NONE', #66 ) ;
#49 = CIRCLE ( 'NONE', #245, 5.000000000000000000 ) ;
#50 = DIRECTION ( 'NONE',  ( 0.000000000000000000, 0.000000000000000000, 1.000000000000000000 ) ) ;
#51 = PRODUCT ( '3541', '3541', '', ( #61 ) ) ;
#52 = DIRECTION ( 'NONE',  ( 1.000000000000000000, 0.000000000000000000, -0.000000000000000000 ) ) ;
#53 = DIRECTION ( 'NONE',  ( 0.000000000000000000, 0.000000000000000000, 1.000000000000000000 ) ) ;
#54 = APPROVAL_PERSON_ORGANIZATION ( #223, #183, #7 ) ;
#55 = DIRECTION ( 'NONE',  ( -0.000000000000000000, -0.000000000000000000, -1.000000000000000000 ) ) ;
#56 = AXIS2_PLACEMENT_3D ( 'NONE', #263, #216, #140 ) ;
#57 = DIRECTION ( 'NONE',  ( 0.000000000000000000, 0.000000000000000000, 1.000000000000000000 ) ) ;
#58 = PERSON_AND_ORGANIZATION ( #241, #90 ) ;
#59 = ORIENTED_EDGE ( 'NONE', *, *, #289, .F. ) ;
#60 = CIRCLE ( 'NONE', #5, 2.750000000000000000 ) ;
#61 = MECHANICAL_CONTEXT ( 'NONE', #130, 'mechanical' ) ;
#62 = ORIENTED_EDGE ( 'NONE', *, *, #246, .F. ) ;
#63 = EDGE_LOOP ( 'NONE', ( #287, #227 ) ) ;
#64 = PERSON_AND_ORGANIZATION ( #241, #90 ) ;
#65 = AXIS2_PLACEMENT_3D ( 'NONE', #103, #196, #242 ) ;
#66 = CARTESIAN_POINT ( 'NONE',  ( -2.750000000000000000, 0.000000000000000000, 633.0000000000000000 ) ) ;
#67 = CIRCLE ( 'NONE', #56, 2.949999999999999734 ) ;
#68 = ORIENTED_EDGE ( 'NONE', *, *, #114, .F. ) ;
#69 = VERTEX_POINT ( 'NONE', #163 ) ;
#70 = VECTOR ( 'NONE', #123, 1000.000000000000000 ) ;
#71 = CYLINDRICAL_SURFACE ( 'NONE', #156, 5.000000000000000000 ) ;
#72 = TOROIDAL_SURFACE ( 'NONE', #13, 2.949999999999999734, 0.2000000000000000111 ) ;
#73 = FACE_OUTER_BOUND ( 'NONE', #255, .T. ) ;
#74 = ADVANCED_FACE ( 'NONE', ( #232 ), #71, .T. ) ;
#75 = DIRECTION ( 'NONE',  ( 1.224646799147353207E-16, 1.000000000000000000, -0.000000000000000000 ) ) ;
#76 = DIRECTION ( 'NONE',  ( 1.000000000000000000, 0.000000000000000000, 0.000000000000000000 ) ) ;
#77 = CARTESIAN_POINT ( 'NONE',  ( -5.000000000000000000, 0.000000000000000000, 3.000000000000000000 ) ) ;
#78 = EDGE_CURVE ( 'NONE', #278, #283, #29, .T. ) ;
#79 = CARTESIAN_POINT ( 'NONE',  ( 0.000000000000000000, 0.000000000000000000, 0.000000000000000000 ) ) ;
#80 = CARTESIAN_POINT ( 'NONE',  ( 5.000000000000000000, 6.123233995736766282E-16, 3.000000000000000000 ) ) ;
#81 = CIRCLE ( 'NONE', #25, 2.750000000000000000 ) ;
#82 = SECURITY_CLASSIFICATION_LEVEL ( 'unclassified' ) ;
#83 = ADVANCED_FACE ( 'NONE', ( #258 ), #129, .F. ) ;
#84 = CC_DESIGN_APPROVAL ( #17, ( #231 ) ) ;
#85 =( NAMED_UNIT ( * ) PLANE_ANGLE_UNIT ( ) SI_UNIT ( $, .RADIAN. ) );
#86 = EDGE_LOOP ( 'NONE', ( #62, #253, #92, #117 ) ) ;
#87 = CALENDAR_DATE ( 2022, 7, 7 ) ;
#88 = CC_DESIGN_PERSON_AND_ORGANIZATION_ASSIGNMENT ( #159, #107, ( #231 ) ) ;
#89 = APPROVAL_DATE_TIME ( #204, #17 ) ;
#90 = ORGANIZATION ( 'NEURÈENÝ', 'NEURÈENÝ', '' ) ;
#91 = DIRECTION ( 'NONE',  ( 0.000000000000000000, 0.000000000000000000, 1.000000000000000000 ) ) ;
#92 = ORIENTED_EDGE ( 'NONE', *, *, #173, .T. ) ;
#93 = ORIENTED_EDGE ( 'NONE', *, *, #280, .T. ) ;
#94 = DIRECTION ( 'NONE',  ( 1.000000000000000000, 0.000000000000000000, 0.000000000000000000 ) ) ;
#95 = VECTOR ( 'NONE', #269, 1000.000000000000000 ) ;
#96 = DIRECTION ( 'NONE',  ( 1.000000000000000000, 0.000000000000000000, 0.000000000000000000 ) ) ;
#97 = CARTESIAN_POINT ( 'NONE',  ( 5.000000000000000000, 6.123233995736766282E-16, 0.000000000000000000 ) ) ;
#98 = DIRECTION ( 'NONE',  ( 0.000000000000000000, 0.000000000000000000, 1.000000000000000000 ) ) ;
#99 = APPROVAL_PERSON_ORGANIZATION ( #274, #17, #151 ) ;
#100 = DIRECTION ( 'NONE',  ( 1.000000000000000000, 0.000000000000000000, 0.000000000000000000 ) ) ;
#101 = ADVANCED_FACE ( 'NONE', ( #261 ), #262, .T. ) ;
#102 = AXIS2_PLACEMENT_3D ( 'NONE', #134, #47, #94 ) ;
#103 = CARTESIAN_POINT ( 'NONE',  ( 0.000000000000000000, 0.000000000000000000, 3.199999999999980638 ) ) ;
#104 = FACE_BOUND ( 'NONE', #63, .T. ) ;
#105 = CIRCLE ( 'NONE', #122, 0.2000000000000000944 ) ;
#106 = LOCAL_TIME ( 12, 14, 40.00000000000000000, #251 ) ;
#107 = PERSON_AND_ORGANIZATION_ROLE ( 'classification_officer' ) ;
#108 = COORDINATED_UNIVERSAL_TIME_OFFSET ( 1, 0, .AHEAD. ) ;
#109 = CALENDAR_DATE ( 2022, 7, 7 ) ;
#110 = CIRCLE ( 'NONE', #222, 0.2000000000000000944 ) ;
#111 = PERSON_AND_ORGANIZATION ( #241, #90 ) ;
#112 = DATE_AND_TIME ( #87, #270 ) ;
#113 = ORIENTED_EDGE ( 'NONE', *, *, #190, .T. ) ;
#114 = EDGE_CURVE ( 'NONE', #205, #14, #67, .T. ) ;
#115 = ORIENTED_EDGE ( 'NONE', *, *, #146, .F. ) ;
#116 = CARTESIAN_POINT ( 'NONE',  ( 0.000000000000000000, 0.000000000000000000, 633.0000000000000000 ) ) ;
#117 = ORIENTED_EDGE ( 'NONE', *, *, #198, .T. ) ;
#118 = FACE_OUTER_BOUND ( 'NONE', #21, .T. ) ;
#119 = ORIENTED_EDGE ( 'NONE', *, *, #175, .F. ) ;
#120 = DIRECTION ( 'NONE',  ( -0.000000000000000000, -0.000000000000000000, -1.000000000000000000 ) ) ;
#121 = CARTESIAN_POINT ( 'NONE',  ( 0.000000000000000000, 0.000000000000000000, 3.000000000000000000 ) ) ;
#122 = AXIS2_PLACEMENT_3D ( 'NONE', #220, #75, #2 ) ;
#123 = DIRECTION ( 'NONE',  ( -0.000000000000000000, -0.000000000000000000, -1.000000000000000000 ) ) ;
#124 = DIRECTION ( 'NONE',  ( 0.000000000000000000, 0.000000000000000000, 1.000000000000000000 ) ) ;
#125 = ADVANCED_FACE ( 'NONE', ( #73 ), #171, .T. ) ;
#126 = CALENDAR_DATE ( 2022, 7, 7 ) ;
#127 = EDGE_LOOP ( 'NONE', ( #133, #275, #250, #37 ) ) ;
#128 = ADVANCED_FACE ( 'NONE', ( #267 ), #72, .F. ) ;
#129 = TOROIDAL_SURFACE ( 'NONE', #102, 2.949999999999999734, 0.2000000000000000111 ) ;
#130 = APPLICATION_CONTEXT ( 'configuration controlled 3d designs of mechanical parts and assemblies' ) ;
#131 = DATE_TIME_ROLE ( 'creation_date' ) ;
#132 = COORDINATED_UNIVERSAL_TIME_OFFSET ( 1, 0, .AHEAD. ) ;
#133 = ORIENTED_EDGE ( 'NONE', *, *, #190, .F. ) ;
#134 = CARTESIAN_POINT ( 'NONE',  ( 0.000000000000000000, 0.000000000000000000, 3.199999999999980638 ) ) ;
#135 = SHAPE_DEFINITION_REPRESENTATION ( #169, #272 ) ;
#136 = AXIS2_PLACEMENT_3D ( 'NONE', #276, #161, #298 ) ;
#137 = CARTESIAN_POINT ( 'NONE',  ( 0.000000000000000000, 0.000000000000000000, 3.000000000000000000 ) ) ;
#138 = CC_DESIGN_PERSON_AND_ORGANIZATION_ASSIGNMENT ( #64, #154, ( #237 ) ) ;
#139 = DIRECTION ( 'NONE',  ( -0.000000000000000000, -0.000000000000000000, -1.000000000000000000 ) ) ;
#140 = DIRECTION ( 'NONE',  ( 1.000000000000000000, 0.000000000000000000, 0.000000000000000000 ) ) ;
#141 = FACE_OUTER_BOUND ( 'NONE', #86, .T. ) ;
#142 = DIRECTION ( 'NONE',  ( 1.000000000000000000, 0.000000000000000000, -0.000000000000000000 ) ) ;
#143 = APPLICATION_CONTEXT ( 'configuration controlled 3d designs of mechanical parts and assemblies' ) ;
#144 = CARTESIAN_POINT ( 'NONE',  ( 0.000000000000000000, 0.000000000000000000, 3.199999999999980638 ) ) ;
#145 = APPROVAL ( #257, 'NEURÈENÝ' ) ;
#146 = EDGE_CURVE ( 'NONE', #283, #278, #213, .T. ) ;
#147 = DIRECTION ( 'NONE',  ( 1.000000000000000000, 0.000000000000000000, 0.000000000000000000 ) ) ;
#148 = CIRCLE ( 'NONE', #167, 2.750000000000000000 ) ;
#149 = LINE ( 'NONE', #249, #18 ) ;
#150 = DESIGN_CONTEXT ( 'detailed design', #143, 'design' ) ;
#151 = APPROVAL_ROLE ( '' ) ;
#152 = ORIENTED_EDGE ( 'NONE', *, *, #146, .T. ) ;
#153 = ADVANCED_FACE ( 'NONE', ( #104, #200 ), #28, .T. ) ;
#154 = PERSON_AND_ORGANIZATION_ROLE ( 'creator' ) ;
#155 = ORIENTED_EDGE ( 'NONE', *, *, #280, .F. ) ;
#156 = AXIS2_PLACEMENT_3D ( 'NONE', #137, #139, #191 ) ;
#157 = CALENDAR_DATE ( 2022, 7, 7 ) ;
#158 = VERTEX_POINT ( 'NONE', #247 ) ;
#159 = PERSON_AND_ORGANIZATION ( #241, #90 ) ;
#160 = AXIS2_PLACEMENT_3D ( 'NONE', #264, #120, #306 ) ;
#161 = DIRECTION ( 'NONE',  ( 0.000000000000000000, 0.000000000000000000, 1.000000000000000000 ) ) ;
#162 = ADVANCED_FACE ( 'NONE', ( #141 ), #221, .T. ) ;
#163 = CARTESIAN_POINT ( 'NONE',  ( 2.750000000000000000, 3.367778697655221012E-16, 633.0000000000000000 ) ) ;
#164 = ORIENTED_EDGE ( 'NONE', *, *, #302, .F. ) ;
#165 = AXIS2_PLACEMENT_3D ( 'NONE', #121, #55, #147 ) ;
#166 = DIRECTION ( 'NONE',  ( 0.000000000000000000, 0.000000000000000000, 1.000000000000000000 ) ) ;
#167 = AXIS2_PLACEMENT_3D ( 'NONE', #188, #304, #22 ) ;
#168 = DIRECTION ( 'NONE',  ( -1.000000000000000000, 0.000000000000000000, 0.000000000000000000 ) ) ;
#169 = PRODUCT_DEFINITION_SHAPE ( 'NONE', 'NONE',  #192 ) ;
#170 = CC_DESIGN_PERSON_AND_ORGANIZATION_ASSIGNMENT ( #295, #4, ( #237 ) ) ;
#171 = CYLINDRICAL_SURFACE ( 'NONE', #301, 2.750000000000000000 ) ;
#172 = DIRECTION ( 'NONE',  ( 0.000000000000000000, 0.000000000000000000, -1.000000000000000000 ) ) ;
#173 = EDGE_CURVE ( 'NONE', #278, #158, #240, .T. ) ;
#174 = FACE_OUTER_BOUND ( 'NONE', #234, .T. ) ;
#175 = EDGE_CURVE ( 'NONE', #187, #158, #236, .T. ) ;
#176 = LINE ( 'NONE', #195, #95 ) ;
#177 = DIRECTION ( 'NONE',  ( -0.000000000000000000, -0.000000000000000000, -1.000000000000000000 ) ) ;
#178 = AXIS2_PLACEMENT_3D ( 'NONE', #305, #98, #142 ) ;
#179 = DIRECTION ( 'NONE',  ( 0.000000000000000000, 0.000000000000000000, 1.000000000000000000 ) ) ;
#180 = DATE_TIME_ROLE ( 'classification_date' ) ;
#181 = ORIENTED_EDGE ( 'NONE', *, *, #15, .F. ) ;
#182 = CIRCLE ( 'NONE', #165, 2.949999999999999734 ) ;
#183 = APPROVAL ( #41, 'NEURÈENÝ' ) ;
#184 = DATE_AND_TIME ( #109, #106 ) ;
#185 = EDGE_LOOP ( 'NONE', ( #115, #40, #12, #228 ) ) ;
#186 = APPROVAL_ROLE ( '' ) ;
#187 = VERTEX_POINT ( 'NONE', #97 ) ;
#188 = CARTESIAN_POINT ( 'NONE',  ( 0.000000000000000000, 0.000000000000000000, 633.0000000000000000 ) ) ;
#189 = ORIENTED_EDGE ( 'NONE', *, *, #302, .T. ) ;
#190 = EDGE_CURVE ( 'NONE', #10, #14, #105, .T. ) ;
#191 = DIRECTION ( 'NONE',  ( -1.000000000000000000, 0.000000000000000000, 0.000000000000000000 ) ) ;
#192 = PRODUCT_DEFINITION ( 'NEZNÁMÝ', '', #237, #150 ) ;
#193 = EDGE_LOOP ( 'NONE', ( #16, #152 ) ) ;
#194 = DIRECTION ( 'NONE',  ( -0.000000000000000000, -0.000000000000000000, -1.000000000000000000 ) ) ;
#195 = CARTESIAN_POINT ( 'NONE',  ( -2.750000000000000000, 0.000000000000000000, 633.0000000000000000 ) ) ;
#196 = DIRECTION ( 'NONE',  ( 0.000000000000000000, 0.000000000000000000, 1.000000000000000000 ) ) ;
#197 = APPROVAL_PERSON_ORGANIZATION ( #111, #145, #186 ) ;
#198 = EDGE_CURVE ( 'NONE', #158, #187, #49, .T. ) ;
#199 = DIRECTION ( 'NONE',  ( 1.000000000000000000, 0.000000000000000000, 0.000000000000000000 ) ) ;
#200 = FACE_OUTER_BOUND ( 'NONE', #193, .T. ) ;
#201 = ADVANCED_FACE ( 'NONE', ( #174 ), #3, .F. ) ;
#202 = LOCAL_TIME ( 12, 14, 40.00000000000000000, #36 ) ;
#203 = APPLICATION_PROTOCOL_DEFINITION ( 'international standard', 'config_control_design', 1994, #130 ) ;
#204 = DATE_AND_TIME ( #254, #202 ) ;
#205 = VERTEX_POINT ( 'NONE', #218 ) ;
#206 = AXIS2_PLACEMENT_3D ( 'NONE', #244, #53, #290 ) ;
#207 = DATE_AND_TIME ( #157, #45 ) ;
#208 = AXIS2_PLACEMENT_3D ( 'NONE', #116, #194, #168 ) ;
#209 = APPROVAL_DATE_TIME ( #207, #183 ) ;
#210 = ORIENTED_EDGE ( 'NONE', *, *, #198, .F. ) ;
#211 = DIRECTION ( 'NONE',  ( -0.000000000000000000, -0.000000000000000000, -1.000000000000000000 ) ) ;
#212 = CARTESIAN_POINT ( 'NONE',  ( -2.750000000000000000, 0.000000000000000000, 3.199999999999980638 ) ) ;
#213 = CIRCLE ( 'NONE', #206, 5.000000000000000000 ) ;
#214 = CC_DESIGN_SECURITY_CLASSIFICATION ( #231, ( #237 ) ) ;
#215 = ORIENTED_EDGE ( 'NONE', *, *, #268, .F. ) ;
#216 = DIRECTION ( 'NONE',  ( -0.000000000000000000, -0.000000000000000000, -1.000000000000000000 ) ) ;
#217 = DIRECTION ( 'NONE',  ( -1.000000000000000000, 0.000000000000000000, 0.000000000000000000 ) ) ;
#218 = CARTESIAN_POINT ( 'NONE',  ( 2.949999999999999734, 0.000000000000000000, 2.999999999999990674 ) ) ;
#219 = VECTOR ( 'NONE', #177, 1000.000000000000000 ) ;
#220 = CARTESIAN_POINT ( 'NONE',  ( -2.949999999999999734, 3.612708057484692097E-16, 3.199999999999980638 ) ) ;
#221 = CYLINDRICAL_SURFACE ( 'NONE', #160, 5.000000000000000000 ) ;
#222 = AXIS2_PLACEMENT_3D ( 'NONE', #271, #30, #172 ) ;
#223 = PERSON_AND_ORGANIZATION ( #241, #90 ) ;
#224 = CLOSED_SHELL ( 'NONE', ( #128, #125, #74, #162, #153, #201, #101, #43, #83 ) ) ;
#225 = EDGE_CURVE ( 'NONE', #33, #10, #23, .T. ) ;
#226 = DATE_AND_TIME ( #126, #260 ) ;
#227 = ORIENTED_EDGE ( 'NONE', *, *, #284, .T. ) ;
#228 = ORIENTED_EDGE ( 'NONE', *, *, #173, .F. ) ;
#229 = ORIENTED_EDGE ( 'NONE', *, *, #268, .T. ) ;
#230 = CARTESIAN_POINT ( 'NONE',  ( 2.750000000000000000, 3.367778697655221012E-16, 3.199999999999980638 ) ) ;
#231 = SECURITY_CLASSIFICATION ( '', '', #82 ) ;
#232 = FACE_OUTER_BOUND ( 'NONE', #185, .T. ) ;
#233 = CC_DESIGN_PERSON_AND_ORGANIZATION_ASSIGNMENT ( #58, #11, ( #51 ) ) ;
#234 = EDGE_LOOP ( 'NONE', ( #210, #119 ) ) ;
#235 = ORIENTED_EDGE ( 'NONE', *, *, #20, .T. ) ;
#236 = CIRCLE ( 'NONE', #243, 5.000000000000000000 ) ;
#237 = PRODUCT_DEFINITION_FORMATION_WITH_SPECIFIED_SOURCE ( 'LIBOVOLNÝ', '', #51, .NOT_KNOWN. ) ;
#238 = ORIENTED_EDGE ( 'NONE', *, *, #20, .F. ) ;
#239 = CC_DESIGN_DATE_AND_TIME_ASSIGNMENT ( #226, #131, ( #192 ) ) ;
#240 = LINE ( 'NONE', #292, #70 ) ;
#241 = PERSON ( 'NEURÈENÝ', 'NEURÈENÝ', 'NEURÈENÝ', ('NEURÈENÝ'), ('NEURÈENÝ'), ('NEURÈENÝ') ) ;
#242 = DIRECTION ( 'NONE',  ( 1.000000000000000000, 0.000000000000000000, 0.000000000000000000 ) ) ;
#243 = AXIS2_PLACEMENT_3D ( 'NONE', #266, #50, #76 ) ;
#244 = CARTESIAN_POINT ( 'NONE',  ( 0.000000000000000000, 0.000000000000000000, 3.000000000000000000 ) ) ;
#245 = AXIS2_PLACEMENT_3D ( 'NONE', #79, #57, #293 ) ;
#246 = EDGE_CURVE ( 'NONE', #283, #187, #291, .T. ) ;
#247 = CARTESIAN_POINT ( 'NONE',  ( -5.000000000000000000, 0.000000000000000000, 0.000000000000000000 ) ) ;
#248 = MANIFOLD_SOLID_BREP ( 'Zaoblit1', #224 ) ;
#249 = CARTESIAN_POINT ( 'NONE',  ( 2.750000000000000000, 3.367778697655221012E-16, 633.0000000000000000 ) ) ;
#250 = ORIENTED_EDGE ( 'NONE', *, *, #289, .T. ) ;
#251 = COORDINATED_UNIVERSAL_TIME_OFFSET ( 1, 0, .AHEAD. ) ;
#252 = APPROVAL_STATUS ( 'not_yet_approved' ) ;
#253 = ORIENTED_EDGE ( 'NONE', *, *, #78, .F. ) ;
#254 = CALENDAR_DATE ( 2022, 7, 7 ) ;
#255 = EDGE_LOOP ( 'NONE', ( #215, #189, #288, #155 ) ) ;
#256 = AXIS2_PLACEMENT_3D ( 'NONE', #294, #26, #52 ) ;
#257 = APPROVAL_STATUS ( 'not_yet_approved' ) ;
#258 = FACE_OUTER_BOUND ( 'NONE', #127, .T. ) ;
#259 = CARTESIAN_POINT ( 'NONE',  ( 0.000000000000000000, 0.000000000000000000, 633.0000000000000000 ) ) ;
#260 = LOCAL_TIME ( 12, 14, 40.00000000000000000, #6 ) ;
#261 = FACE_OUTER_BOUND ( 'NONE', #285, .T. ) ;
#262 = CYLINDRICAL_SURFACE ( 'NONE', #208, 2.750000000000000000 ) ;
#263 = CARTESIAN_POINT ( 'NONE',  ( 0.000000000000000000, 0.000000000000000000, 3.000000000000000000 ) ) ;
#264 = CARTESIAN_POINT ( 'NONE',  ( 0.000000000000000000, 0.000000000000000000, 3.000000000000000000 ) ) ;
#265 = AXIS2_PLACEMENT_3D ( 'NONE', #259, #91, #44 ) ;
#266 = CARTESIAN_POINT ( 'NONE',  ( 0.000000000000000000, 0.000000000000000000, 0.000000000000000000 ) ) ;
#267 = FACE_OUTER_BOUND ( 'NONE', #297, .T. ) ;
#268 = EDGE_CURVE ( 'NONE', #69, #48, #60, .T. ) ;
#269 = DIRECTION ( 'NONE',  ( -0.000000000000000000, -0.000000000000000000, -1.000000000000000000 ) ) ;
#270 = LOCAL_TIME ( 12, 14, 40.00000000000000000, #132 ) ;
#271 = CARTESIAN_POINT ( 'NONE',  ( 2.949999999999999734, 0.000000000000000000, 3.199999999999980638 ) ) ;
#272 = ADVANCED_BREP_SHAPE_REPRESENTATION ( '3541', ( #248, #136 ), #286 ) ;
#273 = UNCERTAINTY_MEASURE_WITH_UNIT (LENGTH_MEASURE( 1.000000000000000082E-05 ), #296, 'distance_accuracy_value', 'NONE');
#274 = PERSON_AND_ORGANIZATION ( #241, #90 ) ;
#275 = ORIENTED_EDGE ( 'NONE', *, *, #225, .F. ) ;
#276 = CARTESIAN_POINT ( 'NONE',  ( 0.000000000000000000, 0.000000000000000000, 0.000000000000000000 ) ) ;
#277 =( NAMED_UNIT ( * ) SI_UNIT ( $, .STERADIAN. ) SOLID_ANGLE_UNIT ( ) );
#278 = VERTEX_POINT ( 'NONE', #77 ) ;
#279 = PRODUCT_RELATED_PRODUCT_CATEGORY ( 'detail', '', ( #51 ) ) ;
#280 = EDGE_CURVE ( 'NONE', #48, #10, #176, .T. ) ;
#281 = APPROVAL_DATE_TIME ( #112, #145 ) ;
#282 = CARTESIAN_POINT ( 'NONE',  ( 0.000000000000000000, 0.000000000000000000, 633.0000000000000000 ) ) ;
#283 = VERTEX_POINT ( 'NONE', #27 ) ;
#284 = EDGE_CURVE ( 'NONE', #14, #205, #182, .T. ) ;
#285 = EDGE_LOOP ( 'NONE', ( #164, #238, #93, #35 ) ) ;
#286 =( GEOMETRIC_REPRESENTATION_CONTEXT ( 3 ) GLOBAL_UNCERTAINTY_ASSIGNED_CONTEXT ( ( #273 ) ) GLOBAL_UNIT_ASSIGNED_CONTEXT ( ( #296, #85, #277 ) ) REPRESENTATION_CONTEXT ( 'NONE', 'WORKASPACE' ) );
#287 = ORIENTED_EDGE ( 'NONE', *, *, #114, .T. ) ;
#288 = ORIENTED_EDGE ( 'NONE', *, *, #225, .T. ) ;
#289 = EDGE_CURVE ( 'NONE', #33, #205, #110, .T. ) ;
#290 = DIRECTION ( 'NONE',  ( 1.000000000000000000, 0.000000000000000000, 0.000000000000000000 ) ) ;
#291 = LINE ( 'NONE', #80, #219 ) ;
#292 = CARTESIAN_POINT ( 'NONE',  ( -5.000000000000000000, 0.000000000000000000, 3.000000000000000000 ) ) ;
#293 = DIRECTION ( 'NONE',  ( 1.000000000000000000, 0.000000000000000000, 0.000000000000000000 ) ) ;
#294 = CARTESIAN_POINT ( 'NONE',  ( 0.000000000000000000, 0.000000000000000000, 3.000000000000000000 ) ) ;
#295 = PERSON_AND_ORGANIZATION ( #241, #90 ) ;
#296 =( LENGTH_UNIT ( ) NAMED_UNIT ( * ) SI_UNIT ( .MILLI., .METRE. ) );
#297 = EDGE_LOOP ( 'NONE', ( #181, #113, #68, #59 ) ) ;
#298 = DIRECTION ( 'NONE',  ( 1.000000000000000000, 0.000000000000000000, 0.000000000000000000 ) ) ;
#299 = PERSON_AND_ORGANIZATION_ROLE ( 'creator' ) ;
#300 = PLANE ( 'NONE',  #265 ) ;
#301 = AXIS2_PLACEMENT_3D ( 'NONE', #282, #211, #217 ) ;
#302 = EDGE_CURVE ( 'NONE', #69, #33, #149, .T. ) ;
#303 = CARTESIAN_POINT ( 'NONE',  ( -2.949999999999999734, 3.612708057484692097E-16, 2.999999999999990674 ) ) ;
#304 = DIRECTION ( 'NONE',  ( 0.000000000000000000, 0.000000000000000000, 1.000000000000000000 ) ) ;
#305 = CARTESIAN_POINT ( 'NONE',  ( 0.000000000000000000, 0.000000000000000000, 0.000000000000000000 ) ) ;
#306 = DIRECTION ( 'NONE',  ( -1.000000000000000000, 0.000000000000000000, 0.000000000000000000 ) ) ;
#307 = CARTESIAN_POINT ( 'NONE',  ( 0.000000000000000000, 0.000000000000000000, 633.0000000000000000 ) ) ;
ENDSEC;
END-ISO-10303-21;
