ISO-10303-21;
HEADER;
FILE_DESCRIPTION (( 'STEP AP203' ),
    '1' );
FILE_NAME ('dc35.STEP',
    '2022-07-07T09:32:39',
    ( '' ),
    ( '' ),
    'SwSTEP 2.0',
    'SolidWorks 2019',
    '' );
FILE_SCHEMA (( 'CONFIG_CONTROL_DESIGN' ));
ENDSEC;

DATA;
#1 = CARTESIAN_POINT ( 'NONE',  ( -12.70000000000000107, 1.555301434917138630E-15, 10.00000000000000000 ) ) ;
#2 = DIRECTION ( 'NONE',  ( 0.000000000000000000, 0.000000000000000000, 1.000000000000000000 ) ) ;
#3 = CIRCLE ( 'NONE', #135, 0.2000000000000005107 ) ;
#4 = AXIS2_PLACEMENT_3D ( 'NONE', #199, #150, #250 ) ;
#5 = VERTEX_POINT ( 'NONE', #100 ) ;
#6 = MANIFOLD_SOLID_BREP ( 'Zaoblit1', #229 ) ;
#7 = EDGE_LOOP ( 'NONE', ( #174, #27, #249, #46 ) ) ;
#8 = DIRECTION ( 'NONE',  ( 1.000000000000000000, 0.000000000000000000, 0.000000000000000000 ) ) ;
#9 = ADVANCED_FACE ( 'NONE', ( #289 ), #198, .T. ) ;
#10 = CYLINDRICAL_SURFACE ( 'NONE', #296, 16.00000000000000000 ) ;
#11 = PLANE ( 'NONE',  #256 ) ;
#12 = FACE_OUTER_BOUND ( 'NONE', #32, .T. ) ;
#13 = AXIS2_PLACEMENT_3D ( 'NONE', #62, #255, #225 ) ;
#14 = DIRECTION ( 'NONE',  ( 1.000000000000000000, 0.000000000000000000, -0.000000000000000000 ) ) ;
#15 = LOCAL_TIME ( 11, 32, 39.00000000000000000, #279 ) ;
#16 = APPROVAL_ROLE ( '' ) ;
#17 = DIRECTION ( 'NONE',  ( -1.000000000000000000, 0.000000000000000000, 0.000000000000000000 ) ) ;
#18 = DIRECTION ( 'NONE',  ( 0.000000000000000000, 0.000000000000000000, 1.000000000000000000 ) ) ;
#19 = PERSON_AND_ORGANIZATION_ROLE ( 'creator' ) ;
#20 = DIRECTION ( 'NONE',  ( 1.000000000000000000, 0.000000000000000000, 0.000000000000000000 ) ) ;
#21 = VERTEX_POINT ( 'NONE', #77 ) ;
#22 = APPLICATION_PROTOCOL_DEFINITION ( 'international standard', 'config_control_design', 1994, #169 ) ;
#23 = MECHANICAL_CONTEXT ( 'NONE', #169, 'mechanical' ) ;
#24 = CC_DESIGN_PERSON_AND_ORGANIZATION_ASSIGNMENT ( #165, #239, ( #246 ) ) ;
#25 = EDGE_CURVE ( 'NONE', #258, #282, #93, .T. ) ;
#26 = AXIS2_PLACEMENT_3D ( 'NONE', #134, #18, #20 ) ;
#27 = ORIENTED_EDGE ( 'NONE', *, *, #293, .F. ) ;
#28 = ORIENTED_EDGE ( 'NONE', *, *, #207, .T. ) ;
#29 = AXIS2_PLACEMENT_3D ( 'NONE', #144, #2, #97 ) ;
#30 = EDGE_LOOP ( 'NONE', ( #288, #115 ) ) ;
#31 = CIRCLE ( 'NONE', #161, 12.70000000000000107 ) ;
#32 = EDGE_LOOP ( 'NONE', ( #48, #51, #124, #52 ) ) ;
#33 = CARTESIAN_POINT ( 'NONE',  ( 0.000000000000000000, 0.000000000000000000, 135.0000000000000000 ) ) ;
#34 = EDGE_CURVE ( 'NONE', #5, #176, #81, .T. ) ;
#35 = AXIS2_PLACEMENT_3D ( 'NONE', #228, #39, #80 ) ;
#36 = CARTESIAN_POINT ( 'NONE',  ( 12.50000000000000000, 1.530808498934191521E-15, 135.0000000000000000 ) ) ;
#37 = CC_DESIGN_APPROVAL ( #119, ( #103 ) ) ;
#38 = CARTESIAN_POINT ( 'NONE',  ( 16.00000000000000000, 1.959434878635765131E-15, 0.000000000000000000 ) ) ;
#39 = DIRECTION ( 'NONE',  ( 0.000000000000000000, 0.000000000000000000, 1.000000000000000000 ) ) ;
#40 = LINE ( 'NONE', #157, #285 ) ;
#41 = PLANE ( 'NONE',  #194 ) ;
#42 = DATE_AND_TIME ( #190, #241 ) ;
#43 = ORIENTED_EDGE ( 'NONE', *, *, #189, .T. ) ;
#44 = CIRCLE ( 'NONE', #13, 0.2000000000000005107 ) ;
#45 = LINE ( 'NONE', #305, #287 ) ;
#46 = ORIENTED_EDGE ( 'NONE', *, *, #34, .T. ) ;
#47 = APPROVAL_PERSON_ORGANIZATION ( #88, #72, #16 ) ;
#48 = ORIENTED_EDGE ( 'NONE', *, *, #54, .F. ) ;
#49 = CC_DESIGN_PERSON_AND_ORGANIZATION_ASSIGNMENT ( #302, #19, ( #204 ) ) ;
#50 = LOCAL_TIME ( 11, 32, 39.00000000000000000, #140 ) ;
#51 = ORIENTED_EDGE ( 'NONE', *, *, #220, .T. ) ;
#52 = ORIENTED_EDGE ( 'NONE', *, *, #61, .F. ) ;
#53 = EDGE_LOOP ( 'NONE', ( #265, #245 ) ) ;
#54 = EDGE_CURVE ( 'NONE', #95, #263, #266, .T. ) ;
#55 = ORGANIZATION ( 'NEURÈENÝ', 'NEURÈENÝ', '' ) ;
#56 = ORIENTED_EDGE ( 'NONE', *, *, #25, .F. ) ;
#57 = CYLINDRICAL_SURFACE ( 'NONE', #4, 16.00000000000000000 ) ;
#58 = DIRECTION ( 'NONE',  ( -0.000000000000000000, -0.000000000000000000, -1.000000000000000000 ) ) ;
#59 = PRODUCT_DEFINITION ( 'NEZNÁMÝ', '', #204, #109 ) ;
#60 = LINE ( 'NONE', #106, #130 ) ;
#61 = EDGE_CURVE ( 'NONE', #263, #281, #242, .T. ) ;
#62 = CARTESIAN_POINT ( 'NONE',  ( 12.70000000000000107, 0.000000000000000000, 10.20000000000000107 ) ) ;
#63 = DIRECTION ( 'NONE',  ( -0.000000000000000000, -0.000000000000000000, -1.000000000000000000 ) ) ;
#64 = CALENDAR_DATE ( 2022, 7, 7 ) ;
#65 = FACE_OUTER_BOUND ( 'NONE', #170, .T. ) ;
#66 = TOROIDAL_SURFACE ( 'NONE', #26, 12.70000000000000107, 0.2000000000000000111 ) ;
#67 = APPLICATION_CONTEXT ( 'configuration controlled 3d designs of mechanical parts and assemblies' ) ;
#68 =( NAMED_UNIT ( * ) SI_UNIT ( $, .STERADIAN. ) SOLID_ANGLE_UNIT ( ) );
#69 = CALENDAR_DATE ( 2022, 7, 7 ) ;
#70 = DIRECTION ( 'NONE',  ( 0.000000000000000000, 0.000000000000000000, 1.000000000000000000 ) ) ;
#71 = ORIENTED_EDGE ( 'NONE', *, *, #181, .T. ) ;
#72 = APPROVAL ( #232, 'NEURÈENÝ' ) ;
#73 = VERTEX_POINT ( 'NONE', #1 ) ;
#74 = DATE_AND_TIME ( #240, #50 ) ;
#75 = CARTESIAN_POINT ( 'NONE',  ( 0.000000000000000000, 0.000000000000000000, 135.0000000000000000 ) ) ;
#76 = ORIENTED_EDGE ( 'NONE', *, *, #209, .T. ) ;
#77 = CARTESIAN_POINT ( 'NONE',  ( 12.70000000000000107, 0.000000000000000000, 10.00000000000000000 ) ) ;
#78 = AXIS2_PLACEMENT_3D ( 'NONE', #156, #182, #85 ) ;
#79 = CYLINDRICAL_SURFACE ( 'NONE', #147, 12.50000000000000000 ) ;
#80 = DIRECTION ( 'NONE',  ( 1.000000000000000000, 0.000000000000000000, 0.000000000000000000 ) ) ;
#81 = CIRCLE ( 'NONE', #121, 12.50000000000000000 ) ;
#82 = DIRECTION ( 'NONE',  ( 0.000000000000000000, 0.000000000000000000, 1.000000000000000000 ) ) ;
#83 = EDGE_CURVE ( 'NONE', #263, #95, #152, .T. ) ;
#84 =( GEOMETRIC_REPRESENTATION_CONTEXT ( 3 ) GLOBAL_UNCERTAINTY_ASSIGNED_CONTEXT ( ( #86 ) ) GLOBAL_UNIT_ASSIGNED_CONTEXT ( ( #114, #89, #68 ) ) REPRESENTATION_CONTEXT ( 'NONE', 'WORKASPACE' ) );
#85 = DIRECTION ( 'NONE',  ( 1.000000000000000000, 0.000000000000000000, -0.000000000000000000 ) ) ;
#86 = UNCERTAINTY_MEASURE_WITH_UNIT (LENGTH_MEASURE( 1.000000000000000082E-05 ), #114, 'distance_accuracy_value', 'NONE');
#87 = DIRECTION ( 'NONE',  ( 1.000000000000000000, 0.000000000000000000, 0.000000000000000000 ) ) ;
#88 = PERSON_AND_ORGANIZATION ( #127, #55 ) ;
#89 =( NAMED_UNIT ( * ) PLANE_ANGLE_UNIT ( ) SI_UNIT ( $, .RADIAN. ) );
#90 = DATE_AND_TIME ( #116, #183 ) ;
#91 = CC_DESIGN_DATE_AND_TIME_ASSIGNMENT ( #42, #210, ( #59 ) ) ;
#92 = EDGE_LOOP ( 'NONE', ( #215, #102, #125, #71 ) ) ;
#93 = CIRCLE ( 'NONE', #101, 12.50000000000000000 ) ;
#94 = DIRECTION ( 'NONE',  ( 1.000000000000000000, 0.000000000000000000, 0.000000000000000000 ) ) ;
#95 = VERTEX_POINT ( 'NONE', #196 ) ;
#96 = ORIENTED_EDGE ( 'NONE', *, *, #139, .T. ) ;
#97 = DIRECTION ( 'NONE',  ( 1.000000000000000000, 0.000000000000000000, 0.000000000000000000 ) ) ;
#98 = EDGE_LOOP ( 'NONE', ( #122, #123 ) ) ;
#99 = ADVANCED_FACE ( 'NONE', ( #233 ), #41, .T. ) ;
#100 = CARTESIAN_POINT ( 'NONE',  ( -12.50000000000000000, 0.000000000000000000, 10.20000000000000107 ) ) ;
#101 = AXIS2_PLACEMENT_3D ( 'NONE', #75, #172, #149 ) ;
#102 = ORIENTED_EDGE ( 'NONE', *, *, #83, .F. ) ;
#103 = SECURITY_CLASSIFICATION ( '', '', #113 ) ;
#104 = DIRECTION ( 'NONE',  ( 1.000000000000000000, 0.000000000000000000, 0.000000000000000000 ) ) ;
#105 = CARTESIAN_POINT ( 'NONE',  ( 0.000000000000000000, 0.000000000000000000, 10.00000000000000000 ) ) ;
#106 = CARTESIAN_POINT ( 'NONE',  ( 12.50000000000000000, 1.530808498934191521E-15, 135.0000000000000000 ) ) ;
#107 = APPROVAL_PERSON_ORGANIZATION ( #110, #142, #300 ) ;
#108 = FACE_OUTER_BOUND ( 'NONE', #53, .T. ) ;
#109 = DESIGN_CONTEXT ( 'detailed design', #67, 'design' ) ;
#110 = PERSON_AND_ORGANIZATION ( #127, #55 ) ;
#111 = COORDINATED_UNIVERSAL_TIME_OFFSET ( 1, 0, .AHEAD. ) ;
#112 = AXIS2_PLACEMENT_3D ( 'NONE', #203, #252, #274 ) ;
#113 = SECURITY_CLASSIFICATION_LEVEL ( 'unclassified' ) ;
#114 =( LENGTH_UNIT ( ) NAMED_UNIT ( * ) SI_UNIT ( .MILLI., .METRE. ) );
#115 = ORIENTED_EDGE ( 'NONE', *, *, #25, .T. ) ;
#116 = CALENDAR_DATE ( 2022, 7, 7 ) ;
#117 = CARTESIAN_POINT ( 'NONE',  ( -16.00000000000000000, 0.000000000000000000, 0.000000000000000000 ) ) ;
#118 = LOCAL_TIME ( 11, 32, 39.00000000000000000, #275 ) ;
#119 = APPROVAL ( #168, 'NEURÈENÝ' ) ;
#120 = CARTESIAN_POINT ( 'NONE',  ( -16.00000000000000000, 0.000000000000000000, 10.00000000000000000 ) ) ;
#121 = AXIS2_PLACEMENT_3D ( 'NONE', #148, #248, #219 ) ;
#122 = ORIENTED_EDGE ( 'NONE', *, *, #304, .T. ) ;
#123 = ORIENTED_EDGE ( 'NONE', *, *, #224, .T. ) ;
#124 = ORIENTED_EDGE ( 'NONE', *, *, #262, .T. ) ;
#125 = ORIENTED_EDGE ( 'NONE', *, *, #61, .T. ) ;
#126 = DIRECTION ( 'NONE',  ( 0.000000000000000000, 0.000000000000000000, 1.000000000000000000 ) ) ;
#127 = PERSON ( 'NEURÈENÝ', 'NEURÈENÝ', 'NEURÈENÝ', ('NEURÈENÝ'), ('NEURÈENÝ'), ('NEURÈENÝ') ) ;
#128 = CARTESIAN_POINT ( 'NONE',  ( -16.00000000000000000, 0.000000000000000000, 10.00000000000000000 ) ) ;
#129 = DIRECTION ( 'NONE',  ( -0.000000000000000000, -0.000000000000000000, -1.000000000000000000 ) ) ;
#130 = VECTOR ( 'NONE', #63, 1000.000000000000000 ) ;
#131 = DIRECTION ( 'NONE',  ( -1.000000000000000000, 0.000000000000000000, 0.000000000000000000 ) ) ;
#132 = APPLICATION_PROTOCOL_DEFINITION ( 'international standard', 'config_control_design', 1994, #67 ) ;
#133 = DIRECTION ( 'NONE',  ( 1.224646799147353207E-16, 1.000000000000000000, -0.000000000000000000 ) ) ;
#134 = CARTESIAN_POINT ( 'NONE',  ( 0.000000000000000000, 0.000000000000000000, 10.20000000000000107 ) ) ;
#135 = AXIS2_PLACEMENT_3D ( 'NONE', #201, #133, #253 ) ;
#136 = DATE_AND_TIME ( #69, #15 ) ;
#137 = ORIENTED_EDGE ( 'NONE', *, *, #83, .T. ) ;
#138 = DIRECTION ( 'NONE',  ( 0.000000000000000000, 0.000000000000000000, 1.000000000000000000 ) ) ;
#139 = EDGE_CURVE ( 'NONE', #258, #176, #60, .T. ) ;
#140 = COORDINATED_UNIVERSAL_TIME_OFFSET ( 1, 0, .AHEAD. ) ;
#141 = DIRECTION ( 'NONE',  ( 1.000000000000000000, 0.000000000000000000, 0.000000000000000000 ) ) ;
#142 = APPROVAL ( #206, 'NEURÈENÝ' ) ;
#143 = CARTESIAN_POINT ( 'NONE',  ( 0.000000000000000000, 0.000000000000000000, 10.00000000000000000 ) ) ;
#144 = CARTESIAN_POINT ( 'NONE',  ( 0.000000000000000000, 0.000000000000000000, 10.00000000000000000 ) ) ;
#145 = ORIENTED_EDGE ( 'NONE', *, *, #207, .F. ) ;
#146 = ADVANCED_BREP_SHAPE_REPRESENTATION ( 'dc35', ( #6, #298 ), #84 ) ;
#147 = AXIS2_PLACEMENT_3D ( 'NONE', #292, #129, #17 ) ;
#148 = CARTESIAN_POINT ( 'NONE',  ( 0.000000000000000000, 0.000000000000000000, 10.20000000000000107 ) ) ;
#149 = DIRECTION ( 'NONE',  ( 1.000000000000000000, 0.000000000000000000, 0.000000000000000000 ) ) ;
#150 = DIRECTION ( 'NONE',  ( -0.000000000000000000, -0.000000000000000000, -1.000000000000000000 ) ) ;
#151 = CC_DESIGN_DATE_AND_TIME_ASSIGNMENT ( #136, #193, ( #103 ) ) ;
#152 = CIRCLE ( 'NONE', #29, 16.00000000000000000 ) ;
#153 = ADVANCED_FACE ( 'NONE', ( #108 ), #297, .F. ) ;
#154 = CIRCLE ( 'NONE', #306, 12.70000000000000107 ) ;
#155 = FACE_OUTER_BOUND ( 'NONE', #92, .T. ) ;
#156 = CARTESIAN_POINT ( 'NONE',  ( 0.000000000000000000, 0.000000000000000000, 0.000000000000000000 ) ) ;
#157 = CARTESIAN_POINT ( 'NONE',  ( 16.00000000000000000, 1.959434878635765131E-15, 10.00000000000000000 ) ) ;
#158 = AXIS2_PLACEMENT_3D ( 'NONE', #33, #223, #284 ) ;
#159 = CARTESIAN_POINT ( 'NONE',  ( 12.50000000000000000, 1.530808498934191521E-15, 10.20000000000000107 ) ) ;
#160 = APPROVAL_DATE_TIME ( #236, #142 ) ;
#161 = AXIS2_PLACEMENT_3D ( 'NONE', #166, #277, #141 ) ;
#162 = EDGE_LOOP ( 'NONE', ( #137, #197 ) ) ;
#163 = PERSON_AND_ORGANIZATION_ROLE ( 'design_supplier' ) ;
#164 = CARTESIAN_POINT ( 'NONE',  ( 0.000000000000000000, 0.000000000000000000, 135.0000000000000000 ) ) ;
#165 = PERSON_AND_ORGANIZATION ( #127, #55 ) ;
#166 = CARTESIAN_POINT ( 'NONE',  ( 0.000000000000000000, 0.000000000000000000, 10.00000000000000000 ) ) ;
#167 = PRODUCT_RELATED_PRODUCT_CATEGORY ( 'detail', '', ( #246 ) ) ;
#168 = APPROVAL_STATUS ( 'not_yet_approved' ) ;
#169 = APPLICATION_CONTEXT ( 'configuration controlled 3d designs of mechanical parts and assemblies' ) ;
#170 = EDGE_LOOP ( 'NONE', ( #264, #28, #212, #238 ) ) ;
#171 = SHAPE_DEFINITION_REPRESENTATION ( #177, #146 ) ;
#172 = DIRECTION ( 'NONE',  ( 0.000000000000000000, 0.000000000000000000, 1.000000000000000000 ) ) ;
#173 = CC_DESIGN_APPROVAL ( #142, ( #204 ) ) ;
#174 = ORIENTED_EDGE ( 'NONE', *, *, #139, .F. ) ;
#175 = VECTOR ( 'NONE', #213, 1000.000000000000000 ) ;
#176 = VERTEX_POINT ( 'NONE', #159 ) ;
#177 = PRODUCT_DEFINITION_SHAPE ( 'NONE', 'NONE',  #59 ) ;
#178 = ORIENTED_EDGE ( 'NONE', *, *, #283, .F. ) ;
#179 = CC_DESIGN_PERSON_AND_ORGANIZATION_ASSIGNMENT ( #211, #303, ( #103 ) ) ;
#180 = CARTESIAN_POINT ( 'NONE',  ( 0.000000000000000000, 0.000000000000000000, 10.00000000000000000 ) ) ;
#181 = EDGE_CURVE ( 'NONE', #281, #267, #254, .T. ) ;
#182 = DIRECTION ( 'NONE',  ( 0.000000000000000000, 0.000000000000000000, 1.000000000000000000 ) ) ;
#183 = LOCAL_TIME ( 11, 32, 39.00000000000000000, #259 ) ;
#184 = CC_DESIGN_APPROVAL ( #72, ( #59 ) ) ;
#185 = DIRECTION ( 'NONE',  ( -0.000000000000000000, -0.000000000000000000, -1.000000000000000000 ) ) ;
#186 = FACE_OUTER_BOUND ( 'NONE', #217, .T. ) ;
#187 = AXIS2_PLACEMENT_3D ( 'NONE', #270, #299, #87 ) ;
#188 = PERSON_AND_ORGANIZATION ( #127, #55 ) ;
#189 = EDGE_CURVE ( 'NONE', #176, #5, #301, .T. ) ;
#190 = CALENDAR_DATE ( 2022, 7, 7 ) ;
#191 = ADVANCED_FACE ( 'NONE', ( #295 ), #208, .F. ) ;
#192 = DIRECTION ( 'NONE',  ( -0.000000000000000000, -0.000000000000000000, -1.000000000000000000 ) ) ;
#193 = DATE_TIME_ROLE ( 'classification_date' ) ;
#194 = AXIS2_PLACEMENT_3D ( 'NONE', #251, #272, #14 ) ;
#195 = ORIENTED_EDGE ( 'NONE', *, *, #224, .F. ) ;
#196 = CARTESIAN_POINT ( 'NONE',  ( 16.00000000000000000, 1.959434878635765131E-15, 10.00000000000000000 ) ) ;
#197 = ORIENTED_EDGE ( 'NONE', *, *, #54, .T. ) ;
#198 = CYLINDRICAL_SURFACE ( 'NONE', #158, 12.50000000000000000 ) ;
#199 = CARTESIAN_POINT ( 'NONE',  ( 0.000000000000000000, 0.000000000000000000, 10.00000000000000000 ) ) ;
#200 = DIRECTION ( 'NONE',  ( -0.000000000000000000, -0.000000000000000000, -1.000000000000000000 ) ) ;
#201 = CARTESIAN_POINT ( 'NONE',  ( -12.70000000000000107, 1.555301434917138630E-15, 10.20000000000000107 ) ) ;
#202 = CIRCLE ( 'NONE', #231, 16.00000000000000000 ) ;
#203 = CARTESIAN_POINT ( 'NONE',  ( 0.000000000000000000, 0.000000000000000000, 10.20000000000000107 ) ) ;
#204 = PRODUCT_DEFINITION_FORMATION_WITH_SPECIFIED_SOURCE ( 'LIBOVOLNÝ', '', #246, .NOT_KNOWN. ) ;
#205 = CARTESIAN_POINT ( 'NONE',  ( 0.000000000000000000, 0.000000000000000000, 10.00000000000000000 ) ) ;
#206 = APPROVAL_STATUS ( 'not_yet_approved' ) ;
#207 = EDGE_CURVE ( 'NONE', #5, #73, #3, .T. ) ;
#208 = TOROIDAL_SURFACE ( 'NONE', #112, 12.70000000000000107, 0.2000000000000000111 ) ;
#209 = EDGE_CURVE ( 'NONE', #176, #21, #44, .T. ) ;
#210 = DATE_TIME_ROLE ( 'creation_date' ) ;
#211 = PERSON_AND_ORGANIZATION ( #127, #55 ) ;
#212 = ORIENTED_EDGE ( 'NONE', *, *, #304, .F. ) ;
#213 = DIRECTION ( 'NONE',  ( -0.000000000000000000, -0.000000000000000000, -1.000000000000000000 ) ) ;
#214 = APPROVAL_DATE_TIME ( #74, #119 ) ;
#215 = ORIENTED_EDGE ( 'NONE', *, *, #220, .F. ) ;
#216 = CC_DESIGN_SECURITY_CLASSIFICATION ( #103, ( #204 ) ) ;
#217 = EDGE_LOOP ( 'NONE', ( #56, #96, #43, #178 ) ) ;
#218 = ADVANCED_FACE ( 'NONE', ( #186 ), #79, .T. ) ;
#219 = DIRECTION ( 'NONE',  ( 1.000000000000000000, 0.000000000000000000, 0.000000000000000000 ) ) ;
#220 = EDGE_CURVE ( 'NONE', #95, #267, #40, .T. ) ;
#221 = CARTESIAN_POINT ( 'NONE',  ( 0.000000000000000000, 0.000000000000000000, 0.000000000000000000 ) ) ;
#222 = AXIS2_PLACEMENT_3D ( 'NONE', #143, #290, #8 ) ;
#223 = DIRECTION ( 'NONE',  ( -0.000000000000000000, -0.000000000000000000, -1.000000000000000000 ) ) ;
#224 = EDGE_CURVE ( 'NONE', #73, #21, #154, .T. ) ;
#225 = DIRECTION ( 'NONE',  ( 0.000000000000000000, 0.000000000000000000, -1.000000000000000000 ) ) ;
#226 = CIRCLE ( 'NONE', #307, 12.50000000000000000 ) ;
#227 = FACE_OUTER_BOUND ( 'NONE', #162, .T. ) ;
#228 = CARTESIAN_POINT ( 'NONE',  ( 0.000000000000000000, 0.000000000000000000, 10.20000000000000107 ) ) ;
#229 = CLOSED_SHELL ( 'NONE', ( #286, #218, #234, #237, #273, #153, #9, #99, #191 ) ) ;
#230 = CARTESIAN_POINT ( 'NONE',  ( 0.000000000000000000, 0.000000000000000000, 0.000000000000000000 ) ) ;
#231 = AXIS2_PLACEMENT_3D ( 'NONE', #230, #126, #104 ) ;
#232 = APPROVAL_STATUS ( 'not_yet_approved' ) ;
#233 = FACE_OUTER_BOUND ( 'NONE', #30, .T. ) ;
#234 = ADVANCED_FACE ( 'NONE', ( #12 ), #10, .T. ) ;
#235 = APPROVAL_DATE_TIME ( #90, #72 ) ;
#236 = DATE_AND_TIME ( #64, #118 ) ;
#237 = ADVANCED_FACE ( 'NONE', ( #155 ), #57, .T. ) ;
#238 = ORIENTED_EDGE ( 'NONE', *, *, #209, .F. ) ;
#239 = PERSON_AND_ORGANIZATION_ROLE ( 'design_owner' ) ;
#240 = CALENDAR_DATE ( 2022, 7, 7 ) ;
#241 = LOCAL_TIME ( 11, 32, 39.00000000000000000, #111 ) ;
#242 = LINE ( 'NONE', #120, #175 ) ;
#243 = PERSON_AND_ORGANIZATION ( #127, #55 ) ;
#244 = ORIENTED_EDGE ( 'NONE', *, *, #189, .F. ) ;
#245 = ORIENTED_EDGE ( 'NONE', *, *, #262, .F. ) ;
#246 = PRODUCT ( 'dc35', 'dc35', '', ( #23 ) ) ;
#247 = CC_DESIGN_PERSON_AND_ORGANIZATION_ASSIGNMENT ( #188, #257, ( #59 ) ) ;
#248 = DIRECTION ( 'NONE',  ( 0.000000000000000000, 0.000000000000000000, 1.000000000000000000 ) ) ;
#249 = ORIENTED_EDGE ( 'NONE', *, *, #283, .T. ) ;
#250 = DIRECTION ( 'NONE',  ( -1.000000000000000000, 0.000000000000000000, 0.000000000000000000 ) ) ;
#251 = CARTESIAN_POINT ( 'NONE',  ( 0.000000000000000000, 0.000000000000000000, 135.0000000000000000 ) ) ;
#252 = DIRECTION ( 'NONE',  ( 0.000000000000000000, 0.000000000000000000, 1.000000000000000000 ) ) ;
#253 = DIRECTION ( 'NONE',  ( -1.000000000000000000, 1.224646799147353207E-16, 0.000000000000000000 ) ) ;
#254 = CIRCLE ( 'NONE', #187, 16.00000000000000000 ) ;
#255 = DIRECTION ( 'NONE',  ( 0.000000000000000000, -1.000000000000000000, 0.000000000000000000 ) ) ;
#256 = AXIS2_PLACEMENT_3D ( 'NONE', #105, #82, #271 ) ;
#257 = PERSON_AND_ORGANIZATION_ROLE ( 'creator' ) ;
#258 = VERTEX_POINT ( 'NONE', #36 ) ;
#259 = COORDINATED_UNIVERSAL_TIME_OFFSET ( 1, 0, .AHEAD. ) ;
#260 = DIRECTION ( 'NONE',  ( 1.000000000000000000, 0.000000000000000000, 0.000000000000000000 ) ) ;
#261 = APPROVAL_ROLE ( '' ) ;
#262 = EDGE_CURVE ( 'NONE', #267, #281, #202, .T. ) ;
#263 = VERTEX_POINT ( 'NONE', #128 ) ;
#264 = ORIENTED_EDGE ( 'NONE', *, *, #34, .F. ) ;
#265 = ORIENTED_EDGE ( 'NONE', *, *, #181, .F. ) ;
#266 = CIRCLE ( 'NONE', #222, 16.00000000000000000 ) ;
#267 = VERTEX_POINT ( 'NONE', #38 ) ;
#268 = EDGE_LOOP ( 'NONE', ( #145, #244, #76, #195 ) ) ;
#269 = DIRECTION ( 'NONE',  ( 1.000000000000000000, 0.000000000000000000, 0.000000000000000000 ) ) ;
#270 = CARTESIAN_POINT ( 'NONE',  ( 0.000000000000000000, 0.000000000000000000, 0.000000000000000000 ) ) ;
#271 = DIRECTION ( 'NONE',  ( 1.000000000000000000, 0.000000000000000000, -0.000000000000000000 ) ) ;
#272 = DIRECTION ( 'NONE',  ( 0.000000000000000000, 0.000000000000000000, 1.000000000000000000 ) ) ;
#273 = ADVANCED_FACE ( 'NONE', ( #294, #227 ), #11, .T. ) ;
#274 = DIRECTION ( 'NONE',  ( 1.000000000000000000, 0.000000000000000000, 0.000000000000000000 ) ) ;
#275 = COORDINATED_UNIVERSAL_TIME_OFFSET ( 1, 0, .AHEAD. ) ;
#276 = PERSON_AND_ORGANIZATION ( #127, #55 ) ;
#277 = DIRECTION ( 'NONE',  ( -0.000000000000000000, -0.000000000000000000, -1.000000000000000000 ) ) ;
#278 = CC_DESIGN_PERSON_AND_ORGANIZATION_ASSIGNMENT ( #276, #163, ( #204 ) ) ;
#279 = COORDINATED_UNIVERSAL_TIME_OFFSET ( 1, 0, .AHEAD. ) ;
#280 = CARTESIAN_POINT ( 'NONE',  ( -12.50000000000000000, 0.000000000000000000, 135.0000000000000000 ) ) ;
#281 = VERTEX_POINT ( 'NONE', #117 ) ;
#282 = VERTEX_POINT ( 'NONE', #280 ) ;
#283 = EDGE_CURVE ( 'NONE', #282, #5, #45, .T. ) ;
#284 = DIRECTION ( 'NONE',  ( -1.000000000000000000, 0.000000000000000000, 0.000000000000000000 ) ) ;
#285 = VECTOR ( 'NONE', #200, 1000.000000000000000 ) ;
#286 = ADVANCED_FACE ( 'NONE', ( #65 ), #66, .F. ) ;
#287 = VECTOR ( 'NONE', #192, 1000.000000000000000 ) ;
#288 = ORIENTED_EDGE ( 'NONE', *, *, #293, .T. ) ;
#289 = FACE_OUTER_BOUND ( 'NONE', #7, .T. ) ;
#290 = DIRECTION ( 'NONE',  ( 0.000000000000000000, 0.000000000000000000, 1.000000000000000000 ) ) ;
#291 = APPROVAL_PERSON_ORGANIZATION ( #243, #119, #261 ) ;
#292 = CARTESIAN_POINT ( 'NONE',  ( 0.000000000000000000, 0.000000000000000000, 135.0000000000000000 ) ) ;
#293 = EDGE_CURVE ( 'NONE', #282, #258, #226, .T. ) ;
#294 = FACE_BOUND ( 'NONE', #98, .T. ) ;
#295 = FACE_OUTER_BOUND ( 'NONE', #268, .T. ) ;
#296 = AXIS2_PLACEMENT_3D ( 'NONE', #205, #185, #131 ) ;
#297 = PLANE ( 'NONE',  #78 ) ;
#298 = AXIS2_PLACEMENT_3D ( 'NONE', #221, #138, #94 ) ;
#299 = DIRECTION ( 'NONE',  ( 0.000000000000000000, 0.000000000000000000, 1.000000000000000000 ) ) ;
#300 = APPROVAL_ROLE ( '' ) ;
#301 = CIRCLE ( 'NONE', #35, 12.50000000000000000 ) ;
#302 = PERSON_AND_ORGANIZATION ( #127, #55 ) ;
#303 = PERSON_AND_ORGANIZATION_ROLE ( 'classification_officer' ) ;
#304 = EDGE_CURVE ( 'NONE', #21, #73, #31, .T. ) ;
#305 = CARTESIAN_POINT ( 'NONE',  ( -12.50000000000000000, 0.000000000000000000, 135.0000000000000000 ) ) ;
#306 = AXIS2_PLACEMENT_3D ( 'NONE', #180, #58, #269 ) ;
#307 = AXIS2_PLACEMENT_3D ( 'NONE', #164, #70, #260 ) ;
ENDSEC;
END-ISO-10303-21;
