ISO-10303-21;
HEADER;
FILE_DESCRIPTION (( 'STEP AP203' ),
    '1' );
FILE_NAME ('0c7d.STEP',
    '2022-07-07T10:15:36',
    ( '' ),
    ( '' ),
    'SwSTEP 2.0',
    'SolidWorks 2019',
    '' );
FILE_SCHEMA (( 'CONFIG_CONTROL_DESIGN' ));
ENDSEC;

DATA;
#1 = CARTESIAN_POINT ( 'NONE',  ( -5.000000000000000000, 0.000000000000000000, 3.000000000000000000 ) ) ;
#2 = CARTESIAN_POINT ( 'NONE',  ( 0.000000000000000000, 0.000000000000000000, 253.0000000000000000 ) ) ;
#3 = APPROVAL_PERSON_ORGANIZATION ( #59, #183, #126 ) ;
#4 = TOROIDAL_SURFACE ( 'NONE', #69, 2.949999999999999734, 0.2000000000000000111 ) ;
#5 = DIRECTION ( 'NONE',  ( -0.000000000000000000, -0.000000000000000000, -1.000000000000000000 ) ) ;
#6 =( NAMED_UNIT ( * ) PLANE_ANGLE_UNIT ( ) SI_UNIT ( $, .RADIAN. ) );
#7 = COORDINATED_UNIVERSAL_TIME_OFFSET ( 1, 0, .AHEAD. ) ;
#8 = ORIENTED_EDGE ( 'NONE', *, *, #43, .F. ) ;
#9 = DATE_TIME_ROLE ( 'classification_date' ) ;
#10 = EDGE_CURVE ( 'NONE', #84, #82, #19, .T. ) ;
#11 = APPROVAL_DATE_TIME ( #28, #304 ) ;
#12 = APPROVAL_DATE_TIME ( #239, #183 ) ;
#13 = DIRECTION ( 'NONE',  ( 0.000000000000000000, 0.000000000000000000, 1.000000000000000000 ) ) ;
#14 = PRODUCT_RELATED_PRODUCT_CATEGORY ( 'detail', '', ( #50 ) ) ;
#15 = DIRECTION ( 'NONE',  ( 0.000000000000000000, 0.000000000000000000, 1.000000000000000000 ) ) ;
#16 = DIRECTION ( 'NONE',  ( 0.000000000000000000, 0.000000000000000000, 1.000000000000000000 ) ) ;
#17 = LOCAL_TIME ( 12, 15, 36.00000000000000000, #222 ) ;
#18 = APPROVAL ( #264, 'NEURÈENÝ' ) ;
#19 = LINE ( 'NONE', #305, #196 ) ;
#20 = CC_DESIGN_SECURITY_CLASSIFICATION ( #51, ( #27 ) ) ;
#21 = FACE_OUTER_BOUND ( 'NONE', #241, .T. ) ;
#22 = TOROIDAL_SURFACE ( 'NONE', #195, 2.949999999999999734, 0.2000000000000000111 ) ;
#23 = LINE ( 'NONE', #283, #220 ) ;
#24 = CARTESIAN_POINT ( 'NONE',  ( 0.000000000000000000, 0.000000000000000000, 3.000000000000000000 ) ) ;
#25 = DIRECTION ( 'NONE',  ( 1.000000000000000000, 0.000000000000000000, 0.000000000000000000 ) ) ;
#26 = DIRECTION ( 'NONE',  ( 1.000000000000000000, 0.000000000000000000, 0.000000000000000000 ) ) ;
#27 = PRODUCT_DEFINITION_FORMATION_WITH_SPECIFIED_SOURCE ( 'LIBOVOLNÝ', '', #50, .NOT_KNOWN. ) ;
#28 = DATE_AND_TIME ( #150, #17 ) ;
#29 = VECTOR ( 'NONE', #93, 1000.000000000000000 ) ;
#30 = APPLICATION_PROTOCOL_DEFINITION ( 'international standard', 'config_control_design', 1994, #254 ) ;
#31 = VERTEX_POINT ( 'NONE', #67 ) ;
#32 = AXIS2_PLACEMENT_3D ( 'NONE', #166, #162, #255 ) ;
#33 = PERSON_AND_ORGANIZATION ( #192, #60 ) ;
#34 = ORIENTED_EDGE ( 'NONE', *, *, #104, .F. ) ;
#35 = APPROVAL_STATUS ( 'not_yet_approved' ) ;
#36 = APPROVAL_DATE_TIME ( #292, #18 ) ;
#37 = ORIENTED_EDGE ( 'NONE', *, *, #43, .T. ) ;
#38 = EDGE_CURVE ( 'NONE', #130, #161, #119, .T. ) ;
#39 = EDGE_LOOP ( 'NONE', ( #247, #8, #181, #245 ) ) ;
#40 = ADVANCED_BREP_SHAPE_REPRESENTATION ( '0c7d', ( #133, #165 ), #300 ) ;
#41 = DIRECTION ( 'NONE',  ( -1.000000000000000000, 0.000000000000000000, 0.000000000000000000 ) ) ;
#42 = ORIENTED_EDGE ( 'NONE', *, *, #10, .T. ) ;
#43 = EDGE_CURVE ( 'NONE', #299, #277, #61, .T. ) ;
#44 = CARTESIAN_POINT ( 'NONE',  ( 0.000000000000000000, 0.000000000000000000, 253.0000000000000000 ) ) ;
#45 = CARTESIAN_POINT ( 'NONE',  ( 0.000000000000000000, 0.000000000000000000, 3.000000000000000000 ) ) ;
#46 = FACE_BOUND ( 'NONE', #291, .T. ) ;
#47 = ADVANCED_FACE ( 'NONE', ( #184 ), #4, .F. ) ;
#48 = DIRECTION ( 'NONE',  ( 0.000000000000000000, 0.000000000000000000, -1.000000000000000000 ) ) ;
#49 = FACE_OUTER_BOUND ( 'NONE', #80, .T. ) ;
#50 = PRODUCT ( '0c7d', '0c7d', '', ( #101 ) ) ;
#51 = SECURITY_CLASSIFICATION ( '', '', #244 ) ;
#52 = PLANE ( 'NONE',  #153 ) ;
#53 = EDGE_CURVE ( 'NONE', #277, #299, #175, .T. ) ;
#54 = CARTESIAN_POINT ( 'NONE',  ( 5.000000000000000000, 6.123233995736766282E-16, 3.000000000000000000 ) ) ;
#55 = CIRCLE ( 'NONE', #210, 2.750000000000000000 ) ;
#56 = COORDINATED_UNIVERSAL_TIME_OFFSET ( 1, 0, .AHEAD. ) ;
#57 = PERSON_AND_ORGANIZATION_ROLE ( 'design_supplier' ) ;
#58 = CC_DESIGN_DATE_AND_TIME_ASSIGNMENT ( #169, #9, ( #51 ) ) ;
#59 = PERSON_AND_ORGANIZATION ( #192, #60 ) ;
#60 = ORGANIZATION ( 'NEURÈENÝ', 'NEURÈENÝ', '' ) ;
#61 = CIRCLE ( 'NONE', #99, 5.000000000000000000 ) ;
#62 = ADVANCED_FACE ( 'NONE', ( #207 ), #201, .T. ) ;
#63 = DIRECTION ( 'NONE',  ( 1.000000000000000000, 0.000000000000000000, 0.000000000000000000 ) ) ;
#64 = AXIS2_PLACEMENT_3D ( 'NONE', #167, #260, #118 ) ;
#65 = AXIS2_PLACEMENT_3D ( 'NONE', #45, #106, #274 ) ;
#66 = EDGE_CURVE ( 'NONE', #82, #130, #88, .T. ) ;
#67 = CARTESIAN_POINT ( 'NONE',  ( 5.000000000000000000, 6.123233995736766282E-16, 0.000000000000000000 ) ) ;
#68 = CARTESIAN_POINT ( 'NONE',  ( -2.750000000000000000, 0.000000000000000000, 3.200000000000008171 ) ) ;
#69 = AXIS2_PLACEMENT_3D ( 'NONE', #298, #110, #63 ) ;
#70 = ORIENTED_EDGE ( 'NONE', *, *, #159, .T. ) ;
#71 = DIRECTION ( 'NONE',  ( 1.000000000000000000, 0.000000000000000000, 0.000000000000000000 ) ) ;
#72 = DIRECTION ( 'NONE',  ( 0.000000000000000000, 0.000000000000000000, 1.000000000000000000 ) ) ;
#73 = CARTESIAN_POINT ( 'NONE',  ( 2.949999999999999734, 0.000000000000000000, 3.000000000000004441 ) ) ;
#74 = DIRECTION ( 'NONE',  ( -0.000000000000000000, -0.000000000000000000, -1.000000000000000000 ) ) ;
#75 = CC_DESIGN_PERSON_AND_ORGANIZATION_ASSIGNMENT ( #97, #57, ( #27 ) ) ;
#76 = AXIS2_PLACEMENT_3D ( 'NONE', #109, #85, #87 ) ;
#77 = APPROVAL_ROLE ( '' ) ;
#78 = CARTESIAN_POINT ( 'NONE',  ( 0.000000000000000000, 0.000000000000000000, 0.000000000000000000 ) ) ;
#79 = PERSON_AND_ORGANIZATION ( #192, #60 ) ;
#80 = EDGE_LOOP ( 'NONE', ( #105, #226, #152, #230 ) ) ;
#81 =( LENGTH_UNIT ( ) NAMED_UNIT ( * ) SI_UNIT ( .MILLI., .METRE. ) );
#82 = VERTEX_POINT ( 'NONE', #68 ) ;
#83 = ORIENTED_EDGE ( 'NONE', *, *, #159, .F. ) ;
#84 = VERTEX_POINT ( 'NONE', #185 ) ;
#85 = DIRECTION ( 'NONE',  ( 1.224646799147353207E-16, 1.000000000000000000, -0.000000000000000000 ) ) ;
#86 = DIRECTION ( 'NONE',  ( 1.000000000000000000, 0.000000000000000000, 0.000000000000000000 ) ) ;
#87 = DIRECTION ( 'NONE',  ( -1.000000000000000000, 1.224646799147353207E-16, 0.000000000000000000 ) ) ;
#88 = CIRCLE ( 'NONE', #76, 0.2000000000000000944 ) ;
#89 = CARTESIAN_POINT ( 'NONE',  ( 0.000000000000000000, 0.000000000000000000, 253.0000000000000000 ) ) ;
#90 = ADVANCED_FACE ( 'NONE', ( #206 ), #227, .F. ) ;
#91 = CARTESIAN_POINT ( 'NONE',  ( 0.000000000000000000, 0.000000000000000000, 0.000000000000000000 ) ) ;
#92 = CARTESIAN_POINT ( 'NONE',  ( -2.949999999999999734, 3.612708057484692097E-16, 3.000000000000004441 ) ) ;
#93 = DIRECTION ( 'NONE',  ( -0.000000000000000000, -0.000000000000000000, -1.000000000000000000 ) ) ;
#94 = DIRECTION ( 'NONE',  ( -1.000000000000000000, 0.000000000000000000, 0.000000000000000000 ) ) ;
#95 = DATE_AND_TIME ( #171, #160 ) ;
#96 = UNCERTAINTY_MEASURE_WITH_UNIT (LENGTH_MEASURE( 1.000000000000000082E-05 ), #81, 'distance_accuracy_value', 'NONE');
#97 = PERSON_AND_ORGANIZATION ( #192, #60 ) ;
#98 = AXIS2_PLACEMENT_3D ( 'NONE', #191, #213, #288 ) ;
#99 = AXIS2_PLACEMENT_3D ( 'NONE', #205, #136, #86 ) ;
#100 = ADVANCED_FACE ( 'NONE', ( #204 ), #155, .T. ) ;
#101 = MECHANICAL_CONTEXT ( 'NONE', #144, 'mechanical' ) ;
#102 = PERSON_AND_ORGANIZATION_ROLE ( 'design_owner' ) ;
#103 = PERSON_AND_ORGANIZATION ( #192, #60 ) ;
#104 = EDGE_CURVE ( 'NONE', #82, #302, #278, .T. ) ;
#105 = ORIENTED_EDGE ( 'NONE', *, *, #66, .F. ) ;
#106 = DIRECTION ( 'NONE',  ( -0.000000000000000000, -0.000000000000000000, -1.000000000000000000 ) ) ;
#107 = EDGE_CURVE ( 'NONE', #199, #31, #182, .T. ) ;
#108 = ORIENTED_EDGE ( 'NONE', *, *, #53, .F. ) ;
#109 = CARTESIAN_POINT ( 'NONE',  ( -2.949999999999999734, 3.612708057484692097E-16, 3.200000000000008171 ) ) ;
#110 = DIRECTION ( 'NONE',  ( 0.000000000000000000, 0.000000000000000000, 1.000000000000000000 ) ) ;
#111 = CARTESIAN_POINT ( 'NONE',  ( 2.949999999999999734, 0.000000000000000000, 3.200000000000008171 ) ) ;
#112 = CARTESIAN_POINT ( 'NONE',  ( 0.000000000000000000, 0.000000000000000000, 3.200000000000008171 ) ) ;
#113 = CYLINDRICAL_SURFACE ( 'NONE', #240, 5.000000000000000000 ) ;
#114 = ADVANCED_FACE ( 'NONE', ( #233 ), #113, .T. ) ;
#115 = CARTESIAN_POINT ( 'NONE',  ( -5.000000000000000000, 0.000000000000000000, 0.000000000000000000 ) ) ;
#116 = AXIS2_PLACEMENT_3D ( 'NONE', #229, #16, #156 ) ;
#117 = LOCAL_TIME ( 12, 15, 36.00000000000000000, #7 ) ;
#118 = DIRECTION ( 'NONE',  ( 1.000000000000000000, 0.000000000000000000, -0.000000000000000000 ) ) ;
#119 = CIRCLE ( 'NONE', #65, 2.949999999999999734 ) ;
#120 = DATE_TIME_ROLE ( 'creation_date' ) ;
#121 = PERSON_AND_ORGANIZATION_ROLE ( 'classification_officer' ) ;
#122 = CC_DESIGN_PERSON_AND_ORGANIZATION_ASSIGNMENT ( #103, #121, ( #51 ) ) ;
#123 = DIRECTION ( 'NONE',  ( 0.000000000000000000, 0.000000000000000000, 1.000000000000000000 ) ) ;
#124 = AXIS2_PLACEMENT_3D ( 'NONE', #111, #256, #48 ) ;
#125 = ORIENTED_EDGE ( 'NONE', *, *, #281, .T. ) ;
#126 = APPROVAL_ROLE ( '' ) ;
#127 = CC_DESIGN_PERSON_AND_ORGANIZATION_ASSIGNMENT ( #293, #223, ( #27 ) ) ;
#128 = PERSON_AND_ORGANIZATION ( #192, #60 ) ;
#129 = ORIENTED_EDGE ( 'NONE', *, *, #294, .F. ) ;
#130 = VERTEX_POINT ( 'NONE', #92 ) ;
#131 = DIRECTION ( 'NONE',  ( -0.000000000000000000, -0.000000000000000000, -1.000000000000000000 ) ) ;
#132 = ORIENTED_EDGE ( 'NONE', *, *, #104, .T. ) ;
#133 = MANIFOLD_SOLID_BREP ( 'Zaoblit1', #149 ) ;
#134 = ORIENTED_EDGE ( 'NONE', *, *, #202, .T. ) ;
#135 = ORIENTED_EDGE ( 'NONE', *, *, #284, .F. ) ;
#136 = DIRECTION ( 'NONE',  ( 0.000000000000000000, 0.000000000000000000, 1.000000000000000000 ) ) ;
#137 = AXIS2_PLACEMENT_3D ( 'NONE', #91, #236, #139 ) ;
#138 = DIRECTION ( 'NONE',  ( 1.000000000000000000, 0.000000000000000000, -0.000000000000000000 ) ) ;
#139 = DIRECTION ( 'NONE',  ( 1.000000000000000000, 0.000000000000000000, 0.000000000000000000 ) ) ;
#140 = CARTESIAN_POINT ( 'NONE',  ( 2.750000000000000000, 3.367778697655221012E-16, 3.200000000000008171 ) ) ;
#141 = DIRECTION ( 'NONE',  ( -0.000000000000000000, -0.000000000000000000, -1.000000000000000000 ) ) ;
#142 = AXIS2_PLACEMENT_3D ( 'NONE', #2, #190, #94 ) ;
#143 = CARTESIAN_POINT ( 'NONE',  ( 5.000000000000000000, 6.123233995736766282E-16, 3.000000000000000000 ) ) ;
#144 = APPLICATION_CONTEXT ( 'configuration controlled 3d designs of mechanical parts and assemblies' ) ;
#145 =( NAMED_UNIT ( * ) SI_UNIT ( $, .STERADIAN. ) SOLID_ANGLE_UNIT ( ) );
#146 = PRODUCT_DEFINITION_SHAPE ( 'NONE', 'NONE',  #237 ) ;
#147 = ORIENTED_EDGE ( 'NONE', *, *, #10, .F. ) ;
#148 = APPROVAL_STATUS ( 'not_yet_approved' ) ;
#149 = CLOSED_SHELL ( 'NONE', ( #47, #188, #62, #114, #242, #90, #100, #275, #270 ) ) ;
#150 = CALENDAR_DATE ( 2022, 7, 7 ) ;
#151 = ORIENTED_EDGE ( 'NONE', *, *, #284, .T. ) ;
#152 = ORIENTED_EDGE ( 'NONE', *, *, #294, .T. ) ;
#153 = AXIS2_PLACEMENT_3D ( 'NONE', #287, #285, #138 ) ;
#154 = AXIS2_PLACEMENT_3D ( 'NONE', #158, #13, #251 ) ;
#155 = CYLINDRICAL_SURFACE ( 'NONE', #172, 2.750000000000000000 ) ;
#156 = DIRECTION ( 'NONE',  ( 1.000000000000000000, 0.000000000000000000, 0.000000000000000000 ) ) ;
#157 = CC_DESIGN_APPROVAL ( #304, ( #27 ) ) ;
#158 = CARTESIAN_POINT ( 'NONE',  ( 0.000000000000000000, 0.000000000000000000, 0.000000000000000000 ) ) ;
#159 = EDGE_CURVE ( 'NONE', #84, #272, #259, .T. ) ;
#160 = LOCAL_TIME ( 12, 15, 36.00000000000000000, #296 ) ;
#161 = VERTEX_POINT ( 'NONE', #73 ) ;
#162 = DIRECTION ( 'NONE',  ( 0.000000000000000000, 0.000000000000000000, 1.000000000000000000 ) ) ;
#163 = CC_DESIGN_DATE_AND_TIME_ASSIGNMENT ( #95, #120, ( #237 ) ) ;
#164 = CARTESIAN_POINT ( 'NONE',  ( 0.000000000000000000, 0.000000000000000000, 3.000000000000000000 ) ) ;
#165 = AXIS2_PLACEMENT_3D ( 'NONE', #78, #123, #176 ) ;
#166 = CARTESIAN_POINT ( 'NONE',  ( 0.000000000000000000, 0.000000000000000000, 0.000000000000000000 ) ) ;
#167 = CARTESIAN_POINT ( 'NONE',  ( 0.000000000000000000, 0.000000000000000000, 253.0000000000000000 ) ) ;
#168 = CARTESIAN_POINT ( 'NONE',  ( 0.000000000000000000, 0.000000000000000000, 253.0000000000000000 ) ) ;
#169 = DATE_AND_TIME ( #200, #249 ) ;
#170 = DESIGN_CONTEXT ( 'detailed design', #254, 'design' ) ;
#171 = CALENDAR_DATE ( 2022, 7, 7 ) ;
#172 = AXIS2_PLACEMENT_3D ( 'NONE', #44, #248, #41 ) ;
#173 = APPROVAL_ROLE ( '' ) ;
#174 = EDGE_LOOP ( 'NONE', ( #37, #246 ) ) ;
#175 = CIRCLE ( 'NONE', #116, 5.000000000000000000 ) ;
#176 = DIRECTION ( 'NONE',  ( 1.000000000000000000, 0.000000000000000000, 0.000000000000000000 ) ) ;
#177 = EDGE_LOOP ( 'NONE', ( #34, #221, #280, #129 ) ) ;
#178 = EDGE_CURVE ( 'NONE', #277, #31, #307, .T. ) ;
#179 = EDGE_LOOP ( 'NONE', ( #297, #268 ) ) ;
#180 = CIRCLE ( 'NONE', #98, 2.750000000000000000 ) ;
#181 = ORIENTED_EDGE ( 'NONE', *, *, #266, .T. ) ;
#182 = CIRCLE ( 'NONE', #137, 5.000000000000000000 ) ;
#183 = APPROVAL ( #148, 'NEURÈENÝ' ) ;
#184 = FACE_OUTER_BOUND ( 'NONE', #177, .T. ) ;
#185 = CARTESIAN_POINT ( 'NONE',  ( -2.750000000000000000, 0.000000000000000000, 253.0000000000000000 ) ) ;
#186 = DIRECTION ( 'NONE',  ( -1.000000000000000000, 0.000000000000000000, 0.000000000000000000 ) ) ;
#187 = DIRECTION ( 'NONE',  ( 0.000000000000000000, 0.000000000000000000, 1.000000000000000000 ) ) ;
#188 = ADVANCED_FACE ( 'NONE', ( #306 ), #235, .T. ) ;
#189 = FACE_OUTER_BOUND ( 'NONE', #174, .T. ) ;
#190 = DIRECTION ( 'NONE',  ( -0.000000000000000000, -0.000000000000000000, -1.000000000000000000 ) ) ;
#191 = CARTESIAN_POINT ( 'NONE',  ( 0.000000000000000000, 0.000000000000000000, 3.200000000000008171 ) ) ;
#192 = PERSON ( 'NEURÈENÝ', 'NEURÈENÝ', 'NEURÈENÝ', ('NEURÈENÝ'), ('NEURÈENÝ'), ('NEURÈENÝ') ) ;
#193 = COORDINATED_UNIVERSAL_TIME_OFFSET ( 1, 0, .AHEAD. ) ;
#194 = ORIENTED_EDGE ( 'NONE', *, *, #38, .T. ) ;
#195 = AXIS2_PLACEMENT_3D ( 'NONE', #112, #72, #214 ) ;
#196 = VECTOR ( 'NONE', #231, 1000.000000000000000 ) ;
#197 = EDGE_CURVE ( 'NONE', #302, #82, #180, .T. ) ;
#198 = CALENDAR_DATE ( 2022, 7, 7 ) ;
#199 = VERTEX_POINT ( 'NONE', #115 ) ;
#200 = CALENDAR_DATE ( 2022, 7, 7 ) ;
#201 = CYLINDRICAL_SURFACE ( 'NONE', #211, 5.000000000000000000 ) ;
#202 = EDGE_CURVE ( 'NONE', #31, #199, #286, .T. ) ;
#203 = APPROVAL_PERSON_ORGANIZATION ( #79, #18, #77 ) ;
#204 = FACE_OUTER_BOUND ( 'NONE', #290, .T. ) ;
#205 = CARTESIAN_POINT ( 'NONE',  ( 0.000000000000000000, 0.000000000000000000, 3.000000000000000000 ) ) ;
#206 = FACE_OUTER_BOUND ( 'NONE', #179, .T. ) ;
#207 = FACE_OUTER_BOUND ( 'NONE', #224, .T. ) ;
#208 = LOCAL_TIME ( 12, 15, 36.00000000000000000, #56 ) ;
#209 = DIRECTION ( 'NONE',  ( -0.000000000000000000, -0.000000000000000000, -1.000000000000000000 ) ) ;
#210 = AXIS2_PLACEMENT_3D ( 'NONE', #168, #238, #71 ) ;
#211 = AXIS2_PLACEMENT_3D ( 'NONE', #279, #131, #250 ) ;
#212 = LINE ( 'NONE', #217, #252 ) ;
#213 = DIRECTION ( 'NONE',  ( 0.000000000000000000, 0.000000000000000000, 1.000000000000000000 ) ) ;
#214 = DIRECTION ( 'NONE',  ( 1.000000000000000000, 0.000000000000000000, 0.000000000000000000 ) ) ;
#215 = CIRCLE ( 'NONE', #234, 2.949999999999999734 ) ;
#216 = EDGE_CURVE ( 'NONE', #272, #84, #55, .T. ) ;
#217 = CARTESIAN_POINT ( 'NONE',  ( 2.750000000000000000, 3.367778697655221012E-16, 253.0000000000000000 ) ) ;
#218 = PERSON_AND_ORGANIZATION_ROLE ( 'creator' ) ;
#219 = CC_DESIGN_PERSON_AND_ORGANIZATION_ASSIGNMENT ( #271, #218, ( #237 ) ) ;
#220 = VECTOR ( 'NONE', #74, 1000.000000000000000 ) ;
#221 = ORIENTED_EDGE ( 'NONE', *, *, #66, .T. ) ;
#222 = COORDINATED_UNIVERSAL_TIME_OFFSET ( 1, 0, .AHEAD. ) ;
#223 = PERSON_AND_ORGANIZATION_ROLE ( 'creator' ) ;
#224 = EDGE_LOOP ( 'NONE', ( #108, #301, #134, #243 ) ) ;
#225 = SHAPE_DEFINITION_REPRESENTATION ( #146, #40 ) ;
#226 = ORIENTED_EDGE ( 'NONE', *, *, #197, .F. ) ;
#227 = PLANE ( 'NONE',  #154 ) ;
#228 = CARTESIAN_POINT ( 'NONE',  ( 0.000000000000000000, 0.000000000000000000, 3.200000000000008171 ) ) ;
#229 = CARTESIAN_POINT ( 'NONE',  ( 0.000000000000000000, 0.000000000000000000, 3.000000000000000000 ) ) ;
#230 = ORIENTED_EDGE ( 'NONE', *, *, #38, .F. ) ;
#231 = DIRECTION ( 'NONE',  ( -0.000000000000000000, -0.000000000000000000, -1.000000000000000000 ) ) ;
#232 = CC_DESIGN_APPROVAL ( #18, ( #51 ) ) ;
#233 = FACE_OUTER_BOUND ( 'NONE', #39, .T. ) ;
#234 = AXIS2_PLACEMENT_3D ( 'NONE', #164, #141, #25 ) ;
#235 = CYLINDRICAL_SURFACE ( 'NONE', #142, 2.750000000000000000 ) ;
#236 = DIRECTION ( 'NONE',  ( 0.000000000000000000, 0.000000000000000000, 1.000000000000000000 ) ) ;
#237 = PRODUCT_DEFINITION ( 'NEZNÁMÝ', '', #27, #170 ) ;
#238 = DIRECTION ( 'NONE',  ( 0.000000000000000000, 0.000000000000000000, 1.000000000000000000 ) ) ;
#239 = DATE_AND_TIME ( #289, #117 ) ;
#240 = AXIS2_PLACEMENT_3D ( 'NONE', #24, #209, #186 ) ;
#241 = EDGE_LOOP ( 'NONE', ( #70, #265 ) ) ;
#242 = ADVANCED_FACE ( 'NONE', ( #46, #189 ), #52, .T. ) ;
#243 = ORIENTED_EDGE ( 'NONE', *, *, #266, .F. ) ;
#244 = SECURITY_CLASSIFICATION_LEVEL ( 'unclassified' ) ;
#245 = ORIENTED_EDGE ( 'NONE', *, *, #107, .T. ) ;
#246 = ORIENTED_EDGE ( 'NONE', *, *, #53, .T. ) ;
#247 = ORIENTED_EDGE ( 'NONE', *, *, #178, .F. ) ;
#248 = DIRECTION ( 'NONE',  ( -0.000000000000000000, -0.000000000000000000, -1.000000000000000000 ) ) ;
#249 = LOCAL_TIME ( 12, 15, 36.00000000000000000, #193 ) ;
#250 = DIRECTION ( 'NONE',  ( -1.000000000000000000, 0.000000000000000000, 0.000000000000000000 ) ) ;
#251 = DIRECTION ( 'NONE',  ( 1.000000000000000000, 0.000000000000000000, -0.000000000000000000 ) ) ;
#252 = VECTOR ( 'NONE', #5, 1000.000000000000000 ) ;
#253 = ORIENTED_EDGE ( 'NONE', *, *, #216, .F. ) ;
#254 = APPLICATION_CONTEXT ( 'configuration controlled 3d designs of mechanical parts and assemblies' ) ;
#255 = DIRECTION ( 'NONE',  ( 1.000000000000000000, 0.000000000000000000, 0.000000000000000000 ) ) ;
#256 = DIRECTION ( 'NONE',  ( 0.000000000000000000, -1.000000000000000000, 0.000000000000000000 ) ) ;
#257 = CARTESIAN_POINT ( 'NONE',  ( 2.750000000000000000, 3.367778697655221012E-16, 253.0000000000000000 ) ) ;
#258 = CC_DESIGN_PERSON_AND_ORGANIZATION_ASSIGNMENT ( #33, #102, ( #50 ) ) ;
#259 = CIRCLE ( 'NONE', #303, 2.750000000000000000 ) ;
#260 = DIRECTION ( 'NONE',  ( 0.000000000000000000, 0.000000000000000000, 1.000000000000000000 ) ) ;
#261 = PLANE ( 'NONE',  #64 ) ;
#262 = APPROVAL_PERSON_ORGANIZATION ( #128, #304, #173 ) ;
#263 = CIRCLE ( 'NONE', #124, 0.2000000000000000944 ) ;
#264 = APPROVAL_STATUS ( 'not_yet_approved' ) ;
#265 = ORIENTED_EDGE ( 'NONE', *, *, #216, .T. ) ;
#266 = EDGE_CURVE ( 'NONE', #299, #199, #23, .T. ) ;
#267 = APPLICATION_PROTOCOL_DEFINITION ( 'international standard', 'config_control_design', 1994, #144 ) ;
#268 = ORIENTED_EDGE ( 'NONE', *, *, #202, .F. ) ;
#269 = ORIENTED_EDGE ( 'NONE', *, *, #197, .T. ) ;
#270 = ADVANCED_FACE ( 'NONE', ( #49 ), #22, .F. ) ;
#271 = PERSON_AND_ORGANIZATION ( #192, #60 ) ;
#272 = VERTEX_POINT ( 'NONE', #257 ) ;
#273 = AXIS2_PLACEMENT_3D ( 'NONE', #228, #15, #26 ) ;
#274 = DIRECTION ( 'NONE',  ( 1.000000000000000000, 0.000000000000000000, 0.000000000000000000 ) ) ;
#275 = ADVANCED_FACE ( 'NONE', ( #21 ), #261, .T. ) ;
#276 = EDGE_LOOP ( 'NONE', ( #253, #151, #269, #147 ) ) ;
#277 = VERTEX_POINT ( 'NONE', #54 ) ;
#278 = CIRCLE ( 'NONE', #273, 2.750000000000000000 ) ;
#279 = CARTESIAN_POINT ( 'NONE',  ( 0.000000000000000000, 0.000000000000000000, 3.000000000000000000 ) ) ;
#280 = ORIENTED_EDGE ( 'NONE', *, *, #281, .F. ) ;
#281 = EDGE_CURVE ( 'NONE', #161, #130, #215, .T. ) ;
#282 = DIRECTION ( 'NONE',  ( 1.000000000000000000, 0.000000000000000000, 0.000000000000000000 ) ) ;
#283 = CARTESIAN_POINT ( 'NONE',  ( -5.000000000000000000, 0.000000000000000000, 3.000000000000000000 ) ) ;
#284 = EDGE_CURVE ( 'NONE', #272, #302, #212, .T. ) ;
#285 = DIRECTION ( 'NONE',  ( 0.000000000000000000, 0.000000000000000000, 1.000000000000000000 ) ) ;
#286 = CIRCLE ( 'NONE', #32, 5.000000000000000000 ) ;
#287 = CARTESIAN_POINT ( 'NONE',  ( 0.000000000000000000, 0.000000000000000000, 3.000000000000000000 ) ) ;
#288 = DIRECTION ( 'NONE',  ( 1.000000000000000000, 0.000000000000000000, 0.000000000000000000 ) ) ;
#289 = CALENDAR_DATE ( 2022, 7, 7 ) ;
#290 = EDGE_LOOP ( 'NONE', ( #135, #83, #42, #132 ) ) ;
#291 = EDGE_LOOP ( 'NONE', ( #125, #194 ) ) ;
#292 = DATE_AND_TIME ( #198, #208 ) ;
#293 = PERSON_AND_ORGANIZATION ( #192, #60 ) ;
#294 = EDGE_CURVE ( 'NONE', #302, #161, #263, .T. ) ;
#295 = CC_DESIGN_APPROVAL ( #183, ( #237 ) ) ;
#296 = COORDINATED_UNIVERSAL_TIME_OFFSET ( 1, 0, .AHEAD. ) ;
#297 = ORIENTED_EDGE ( 'NONE', *, *, #107, .F. ) ;
#298 = CARTESIAN_POINT ( 'NONE',  ( 0.000000000000000000, 0.000000000000000000, 3.200000000000008171 ) ) ;
#299 = VERTEX_POINT ( 'NONE', #1 ) ;
#300 =( GEOMETRIC_REPRESENTATION_CONTEXT ( 3 ) GLOBAL_UNCERTAINTY_ASSIGNED_CONTEXT ( ( #96 ) ) GLOBAL_UNIT_ASSIGNED_CONTEXT ( ( #81, #6, #145 ) ) REPRESENTATION_CONTEXT ( 'NONE', 'WORKASPACE' ) );
#301 = ORIENTED_EDGE ( 'NONE', *, *, #178, .T. ) ;
#302 = VERTEX_POINT ( 'NONE', #140 ) ;
#303 = AXIS2_PLACEMENT_3D ( 'NONE', #89, #187, #282 ) ;
#304 = APPROVAL ( #35, 'NEURÈENÝ' ) ;
#305 = CARTESIAN_POINT ( 'NONE',  ( -2.750000000000000000, 0.000000000000000000, 253.0000000000000000 ) ) ;
#306 = FACE_OUTER_BOUND ( 'NONE', #276, .T. ) ;
#307 = LINE ( 'NONE', #143, #29 ) ;
ENDSEC;
END-ISO-10303-21;
