ISO-10303-21;
HEADER;
FILE_DESCRIPTION (( 'STEP AP203' ),
    '1' );
FILE_NAME ('26ee.STEP',
    '2022-07-07T09:29:03',
    ( '' ),
    ( '' ),
    'SwSTEP 2.0',
    'SolidWorks 2019',
    '' );
FILE_SCHEMA (( 'CONFIG_CONTROL_DESIGN' ));
ENDSEC;

DATA;
#1 = PERSON_AND_ORGANIZATION ( #197, #45 ) ;
#2 = CARTESIAN_POINT ( 'NONE',  ( 0.000000000000000000, 0.000000000000000000, 0.000000000000000000 ) ) ;
#3 = VERTEX_POINT ( 'NONE', #92 ) ;
#4 = AXIS2_PLACEMENT_3D ( 'NONE', #49, #31, #76 ) ;
#5 = ORIENTED_EDGE ( 'NONE', *, *, #153, .F. ) ;
#6 = COORDINATED_UNIVERSAL_TIME_OFFSET ( 1, 0, .AHEAD. ) ;
#7 = EDGE_LOOP ( 'NONE', ( #224, #18 ) ) ;
#8 = AXIS2_PLACEMENT_3D ( 'NONE', #307, #264, #152 ) ;
#9 = CALENDAR_DATE ( 2022, 7, 7 ) ;
#10 = CARTESIAN_POINT ( 'NONE',  ( -16.00000000000000000, 0.000000000000000000, 640.0000000000000000 ) ) ;
#11 = LOCAL_TIME ( 11, 29, 3.000000000000000000, #30 ) ;
#12 = CC_DESIGN_PERSON_AND_ORGANIZATION_ASSIGNMENT ( #1, #149, ( #59 ) ) ;
#13 = TOROIDAL_SURFACE ( 'NONE', #174, 16.19999999999999929, 0.2000000000000000111 ) ;
#14 = CC_DESIGN_SECURITY_CLASSIFICATION ( #206, ( #176 ) ) ;
#15 = ORIENTED_EDGE ( 'NONE', *, *, #101, .F. ) ;
#16 = CALENDAR_DATE ( 2022, 7, 7 ) ;
#17 = DIRECTION ( 'NONE',  ( 1.000000000000000000, 0.000000000000000000, 0.000000000000000000 ) ) ;
#18 = ORIENTED_EDGE ( 'NONE', *, *, #170, .T. ) ;
#19 = DIRECTION ( 'NONE',  ( 0.000000000000000000, 0.000000000000000000, 1.000000000000000000 ) ) ;
#20 = DIRECTION ( 'NONE',  ( 0.000000000000000000, 0.000000000000000000, 1.000000000000000000 ) ) ;
#21 = CYLINDRICAL_SURFACE ( 'NONE', #131, 16.00000000000000000 ) ;
#22 =( NAMED_UNIT ( * ) PLANE_ANGLE_UNIT ( ) SI_UNIT ( $, .RADIAN. ) );
#23 = CARTESIAN_POINT ( 'NONE',  ( 16.00000000000000000, 1.959434878635765131E-15, 640.0000000000000000 ) ) ;
#24 = DATE_AND_TIME ( #240, #239 ) ;
#25 = DIRECTION ( 'NONE',  ( -1.000000000000000000, 0.000000000000000000, 0.000000000000000000 ) ) ;
#26 = ORIENTED_EDGE ( 'NONE', *, *, #177, .F. ) ;
#27 = VERTEX_POINT ( 'NONE', #288 ) ;
#28 = PERSON_AND_ORGANIZATION ( #197, #45 ) ;
#29 = EDGE_LOOP ( 'NONE', ( #248, #187, #137, #201 ) ) ;
#30 = COORDINATED_UNIVERSAL_TIME_OFFSET ( 1, 0, .AHEAD. ) ;
#31 = DIRECTION ( 'NONE',  ( 0.000000000000000000, 0.000000000000000000, 1.000000000000000000 ) ) ;
#32 = APPROVAL ( #285, 'NEURÈENÝ' ) ;
#33 = UNCERTAINTY_MEASURE_WITH_UNIT (LENGTH_MEASURE( 1.000000000000000082E-05 ), #210, 'distance_accuracy_value', 'NONE');
#34 = PRODUCT ( '26ee', '26ee', '', ( #258 ) ) ;
#35 = ORIENTED_EDGE ( 'NONE', *, *, #200, .T. ) ;
#36 = DIRECTION ( 'NONE',  ( -1.000000000000000000, 0.000000000000000000, 0.000000000000000000 ) ) ;
#37 = LOCAL_TIME ( 11, 29, 3.000000000000000000, #230 ) ;
#38 = APPLICATION_PROTOCOL_DEFINITION ( 'international standard', 'config_control_design', 1994, #166 ) ;
#39 = CARTESIAN_POINT ( 'NONE',  ( 0.000000000000000000, 0.000000000000000000, 640.0000000000000000 ) ) ;
#40 = CYLINDRICAL_SURFACE ( 'NONE', #228, 20.00000000000000000 ) ;
#41 = DIRECTION ( 'NONE',  ( -0.000000000000000000, -0.000000000000000000, -1.000000000000000000 ) ) ;
#42 = DIRECTION ( 'NONE',  ( 0.000000000000000000, 0.000000000000000000, 1.000000000000000000 ) ) ;
#43 = CIRCLE ( 'NONE', #220, 16.00000000000000000 ) ;
#44 = CC_DESIGN_PERSON_AND_ORGANIZATION_ASSIGNMENT ( #263, #70, ( #176 ) ) ;
#45 = ORGANIZATION ( 'NEURÈENÝ', 'NEURÈENÝ', '' ) ;
#46 = PLANE ( 'NONE',  #294 ) ;
#47 = CARTESIAN_POINT ( 'NONE',  ( 20.00000000000000000, 2.449293598294706513E-15, 10.00000000000000000 ) ) ;
#48 = DATE_AND_TIME ( #67, #11 ) ;
#49 = CARTESIAN_POINT ( 'NONE',  ( 0.000000000000000000, 0.000000000000000000, 0.000000000000000000 ) ) ;
#50 = CIRCLE ( 'NONE', #73, 20.00000000000000000 ) ;
#51 = DIRECTION ( 'NONE',  ( -1.000000000000000000, 1.224646799147353947E-16, 0.000000000000000000 ) ) ;
#52 = MANIFOLD_SOLID_BREP ( 'Zaoblit1', #280 ) ;
#53 = DATE_AND_TIME ( #9, #279 ) ;
#54 = ORIENTED_EDGE ( 'NONE', *, *, #170, .F. ) ;
#55 = EDGE_CURVE ( 'NONE', #150, #27, #80, .T. ) ;
#56 = CIRCLE ( 'NONE', #4, 20.00000000000000000 ) ;
#57 = CIRCLE ( 'NONE', #273, 16.00000000000000000 ) ;
#58 = APPROVAL_PERSON_ORGANIZATION ( #114, #260, #189 ) ;
#59 = PRODUCT_DEFINITION ( 'NEZNÁMÝ', '', #176, #100 ) ;
#60 = FACE_OUTER_BOUND ( 'NONE', #266, .T. ) ;
#61 = DIRECTION ( 'NONE',  ( 0.000000000000000000, 0.000000000000000000, 1.000000000000000000 ) ) ;
#62 = CARTESIAN_POINT ( 'NONE',  ( 0.000000000000000000, 0.000000000000000000, 10.19999999999998685 ) ) ;
#63 =( NAMED_UNIT ( * ) SI_UNIT ( $, .STERADIAN. ) SOLID_ANGLE_UNIT ( ) );
#64 = DIRECTION ( 'NONE',  ( -0.000000000000000000, -0.000000000000000000, -1.000000000000000000 ) ) ;
#65 = PERSON_AND_ORGANIZATION ( #197, #45 ) ;
#66 = DIRECTION ( 'NONE',  ( 1.000000000000000000, 0.000000000000000000, -0.000000000000000000 ) ) ;
#67 = CALENDAR_DATE ( 2022, 7, 7 ) ;
#68 = CARTESIAN_POINT ( 'NONE',  ( 0.000000000000000000, 0.000000000000000000, 0.000000000000000000 ) ) ;
#69 = EDGE_CURVE ( 'NONE', #95, #291, #56, .T. ) ;
#70 = PERSON_AND_ORGANIZATION_ROLE ( 'creator' ) ;
#71 = CARTESIAN_POINT ( 'NONE',  ( -16.19999999999999929, 1.983927814618711846E-15, 10.19999999999998685 ) ) ;
#72 = ORIENTED_EDGE ( 'NONE', *, *, #122, .F. ) ;
#73 = AXIS2_PLACEMENT_3D ( 'NONE', #205, #128, #113 ) ;
#74 = SHAPE_DEFINITION_REPRESENTATION ( #274, #227 ) ;
#75 = DIRECTION ( 'NONE',  ( 1.000000000000000000, 0.000000000000000000, 0.000000000000000000 ) ) ;
#76 = DIRECTION ( 'NONE',  ( 1.000000000000000000, 0.000000000000000000, 0.000000000000000000 ) ) ;
#77 = APPROVAL ( #172, 'NEURÈENÝ' ) ;
#78 = CIRCLE ( 'NONE', #181, 16.19999999999999929 ) ;
#79 = EDGE_CURVE ( 'NONE', #93, #150, #231, .T. ) ;
#80 = CIRCLE ( 'NONE', #109, 0.1999999999999987899 ) ;
#81 = PERSON_AND_ORGANIZATION ( #197, #45 ) ;
#82 = CARTESIAN_POINT ( 'NONE',  ( 0.000000000000000000, 0.000000000000000000, 10.19999999999998685 ) ) ;
#83 = ORIENTED_EDGE ( 'NONE', *, *, #251, .F. ) ;
#84 = CARTESIAN_POINT ( 'NONE',  ( 0.000000000000000000, 0.000000000000000000, 10.00000000000000000 ) ) ;
#85 = FACE_BOUND ( 'NONE', #198, .T. ) ;
#86 = CARTESIAN_POINT ( 'NONE',  ( -16.00000000000000000, 0.000000000000000000, 640.0000000000000000 ) ) ;
#87 = CC_DESIGN_DATE_AND_TIME_ASSIGNMENT ( #300, #103, ( #59 ) ) ;
#88 = FACE_OUTER_BOUND ( 'NONE', #233, .T. ) ;
#89 = DIRECTION ( 'NONE',  ( 1.000000000000000000, 0.000000000000000000, 0.000000000000000000 ) ) ;
#90 = DIRECTION ( 'NONE',  ( 0.000000000000000000, 0.000000000000000000, 1.000000000000000000 ) ) ;
#91 = APPROVAL_STATUS ( 'not_yet_approved' ) ;
#92 = CARTESIAN_POINT ( 'NONE',  ( 20.00000000000000000, 2.449293598294706513E-15, 10.00000000000000000 ) ) ;
#93 = VERTEX_POINT ( 'NONE', #244 ) ;
#94 = APPROVAL_DATE_TIME ( #242, #260 ) ;
#95 = VERTEX_POINT ( 'NONE', #119 ) ;
#96 = VECTOR ( 'NONE', #211, 1000.000000000000000 ) ;
#97 = EDGE_CURVE ( 'NONE', #190, #150, #219, .T. ) ;
#98 = DIRECTION ( 'NONE',  ( -0.000000000000000000, -0.000000000000000000, -1.000000000000000000 ) ) ;
#99 = CIRCLE ( 'NONE', #183, 0.2000000000000005107 ) ;
#100 = DESIGN_CONTEXT ( 'detailed design', #222, 'design' ) ;
#101 = EDGE_CURVE ( 'NONE', #190, #164, #278, .T. ) ;
#102 = ADVANCED_FACE ( 'NONE', ( #108 ), #21, .T. ) ;
#103 = DATE_TIME_ROLE ( 'creation_date' ) ;
#104 = DIRECTION ( 'NONE',  ( 0.000000000000000000, -1.000000000000000000, 0.000000000000000000 ) ) ;
#105 = DIRECTION ( 'NONE',  ( -1.000000000000000000, 0.000000000000000000, 0.000000000000000000 ) ) ;
#106 = DIRECTION ( 'NONE',  ( -0.000000000000000000, -0.000000000000000000, -1.000000000000000000 ) ) ;
#107 = CARTESIAN_POINT ( 'NONE',  ( 0.000000000000000000, 0.000000000000000000, 10.00000000000000000 ) ) ;
#108 = FACE_OUTER_BOUND ( 'NONE', #213, .T. ) ;
#109 = AXIS2_PLACEMENT_3D ( 'NONE', #71, #142, #51 ) ;
#110 = DIRECTION ( 'NONE',  ( 0.000000000000000000, 0.000000000000000000, 1.000000000000000000 ) ) ;
#111 = DIRECTION ( 'NONE',  ( 1.000000000000000000, 0.000000000000000000, 0.000000000000000000 ) ) ;
#112 = APPROVAL_DATE_TIME ( #24, #32 ) ;
#113 = DIRECTION ( 'NONE',  ( 1.000000000000000000, 0.000000000000000000, 0.000000000000000000 ) ) ;
#114 = PERSON_AND_ORGANIZATION ( #197, #45 ) ;
#115 = EDGE_LOOP ( 'NONE', ( #118, #123, #140, #148 ) ) ;
#116 = ORIENTED_EDGE ( 'NONE', *, *, #157, .F. ) ;
#117 = SECURITY_CLASSIFICATION_LEVEL ( 'unclassified' ) ;
#118 = ORIENTED_EDGE ( 'NONE', *, *, #55, .F. ) ;
#119 = CARTESIAN_POINT ( 'NONE',  ( 20.00000000000000000, 2.449293598294706513E-15, 0.000000000000000000 ) ) ;
#120 = CIRCLE ( 'NONE', #292, 20.00000000000000000 ) ;
#121 = EDGE_CURVE ( 'NONE', #93, #171, #99, .T. ) ;
#122 = EDGE_CURVE ( 'NONE', #3, #95, #199, .T. ) ;
#123 = ORIENTED_EDGE ( 'NONE', *, *, #79, .F. ) ;
#124 = CARTESIAN_POINT ( 'NONE',  ( 0.000000000000000000, 0.000000000000000000, 0.000000000000000000 ) ) ;
#125 = APPROVAL_PERSON_ORGANIZATION ( #81, #77, #276 ) ;
#126 = ORIENTED_EDGE ( 'NONE', *, *, #121, .F. ) ;
#127 = CARTESIAN_POINT ( 'NONE',  ( -20.00000000000000000, 0.000000000000000000, 10.00000000000000000 ) ) ;
#128 = DIRECTION ( 'NONE',  ( 0.000000000000000000, 0.000000000000000000, 1.000000000000000000 ) ) ;
#129 = DIRECTION ( 'NONE',  ( 1.000000000000000000, 0.000000000000000000, 0.000000000000000000 ) ) ;
#130 = DIRECTION ( 'NONE',  ( 1.000000000000000000, 0.000000000000000000, 0.000000000000000000 ) ) ;
#131 = AXIS2_PLACEMENT_3D ( 'NONE', #39, #241, #25 ) ;
#132 = CARTESIAN_POINT ( 'NONE',  ( 16.19999999999999929, 0.000000000000000000, 9.999999999999992895 ) ) ;
#133 = ADVANCED_FACE ( 'NONE', ( #88 ), #13, .F. ) ;
#134 = PERSON_AND_ORGANIZATION ( #197, #45 ) ;
#135 = LINE ( 'NONE', #209, #96 ) ;
#136 = DIRECTION ( 'NONE',  ( 1.000000000000000000, 0.000000000000000000, 0.000000000000000000 ) ) ;
#137 = ORIENTED_EDGE ( 'NONE', *, *, #69, .T. ) ;
#138 = VECTOR ( 'NONE', #255, 1000.000000000000000 ) ;
#139 = CC_DESIGN_APPROVAL ( #32, ( #59 ) ) ;
#140 = ORIENTED_EDGE ( 'NONE', *, *, #121, .T. ) ;
#141 = DATE_TIME_ROLE ( 'classification_date' ) ;
#142 = DIRECTION ( 'NONE',  ( 1.224646799147353207E-16, 1.000000000000000000, -0.000000000000000000 ) ) ;
#143 = EDGE_CURVE ( 'NONE', #27, #171, #146, .T. ) ;
#144 = AXIS2_PLACEMENT_3D ( 'NONE', #217, #246, #75 ) ;
#145 = CC_DESIGN_PERSON_AND_ORGANIZATION_ASSIGNMENT ( #134, #179, ( #34 ) ) ;
#146 = CIRCLE ( 'NONE', #8, 16.19999999999999929 ) ;
#147 = AXIS2_PLACEMENT_3D ( 'NONE', #202, #254, #256 ) ;
#148 = ORIENTED_EDGE ( 'NONE', *, *, #143, .F. ) ;
#149 = PERSON_AND_ORGANIZATION_ROLE ( 'creator' ) ;
#150 = VERTEX_POINT ( 'NONE', #180 ) ;
#151 = PLANE ( 'NONE',  #147 ) ;
#152 = DIRECTION ( 'NONE',  ( 1.000000000000000000, 0.000000000000000000, 0.000000000000000000 ) ) ;
#153 = EDGE_CURVE ( 'NONE', #275, #3, #50, .T. ) ;
#154 = CYLINDRICAL_SURFACE ( 'NONE', #223, 16.00000000000000000 ) ;
#155 = CARTESIAN_POINT ( 'NONE',  ( 0.000000000000000000, 0.000000000000000000, 10.00000000000000000 ) ) ;
#156 = FACE_OUTER_BOUND ( 'NONE', #115, .T. ) ;
#157 = EDGE_CURVE ( 'NONE', #164, #93, #135, .T. ) ;
#158 = APPROVAL_ROLE ( '' ) ;
#159 = DIRECTION ( 'NONE',  ( 0.000000000000000000, 0.000000000000000000, 1.000000000000000000 ) ) ;
#160 = CC_DESIGN_APPROVAL ( #260, ( #206 ) ) ;
#161 = DIRECTION ( 'NONE',  ( -0.000000000000000000, -0.000000000000000000, -1.000000000000000000 ) ) ;
#162 = ORIENTED_EDGE ( 'NONE', *, *, #188, .F. ) ;
#163 = ORIENTED_EDGE ( 'NONE', *, *, #188, .T. ) ;
#164 = VERTEX_POINT ( 'NONE', #23 ) ;
#165 = CC_DESIGN_PERSON_AND_ORGANIZATION_ASSIGNMENT ( #247, #265, ( #176 ) ) ;
#166 = APPLICATION_CONTEXT ( 'configuration controlled 3d designs of mechanical parts and assemblies' ) ;
#167 = ORIENTED_EDGE ( 'NONE', *, *, #153, .T. ) ;
#168 = AXIS2_PLACEMENT_3D ( 'NONE', #124, #110, #129 ) ;
#169 = AXIS2_PLACEMENT_3D ( 'NONE', #68, #232, #17 ) ;
#170 = EDGE_CURVE ( 'NONE', #164, #190, #57, .T. ) ;
#171 = VERTEX_POINT ( 'NONE', #132 ) ;
#172 = APPROVAL_STATUS ( 'not_yet_approved' ) ;
#173 = FACE_OUTER_BOUND ( 'NONE', #7, .T. ) ;
#174 = AXIS2_PLACEMENT_3D ( 'NONE', #82, #61, #130 ) ;
#175 = DIRECTION ( 'NONE',  ( -1.000000000000000000, 0.000000000000000000, 0.000000000000000000 ) ) ;
#176 = PRODUCT_DEFINITION_FORMATION_WITH_SPECIFIED_SOURCE ( 'LIBOVOLNÝ', '', #34, .NOT_KNOWN. ) ;
#177 = EDGE_CURVE ( 'NONE', #150, #93, #43, .T. ) ;
#178 = CARTESIAN_POINT ( 'NONE',  ( -20.00000000000000000, 0.000000000000000000, 10.00000000000000000 ) ) ;
#179 = PERSON_AND_ORGANIZATION_ROLE ( 'design_owner' ) ;
#180 = CARTESIAN_POINT ( 'NONE',  ( -16.00000000000000000, 0.000000000000000000, 10.19999999999998685 ) ) ;
#181 = AXIS2_PLACEMENT_3D ( 'NONE', #155, #106, #257 ) ;
#182 = CARTESIAN_POINT ( 'NONE',  ( -20.00000000000000000, 0.000000000000000000, 0.000000000000000000 ) ) ;
#183 = AXIS2_PLACEMENT_3D ( 'NONE', #237, #104, #277 ) ;
#184 = LINE ( 'NONE', #178, #194 ) ;
#185 = ORIENTED_EDGE ( 'NONE', *, *, #251, .T. ) ;
#186 = PERSON_AND_ORGANIZATION_ROLE ( 'classification_officer' ) ;
#187 = ORIENTED_EDGE ( 'NONE', *, *, #122, .T. ) ;
#188 = EDGE_CURVE ( 'NONE', #171, #27, #78, .T. ) ;
#189 = APPROVAL_ROLE ( '' ) ;
#190 = VERTEX_POINT ( 'NONE', #86 ) ;
#191 = CARTESIAN_POINT ( 'NONE',  ( 0.000000000000000000, 0.000000000000000000, 640.0000000000000000 ) ) ;
#192 = ADVANCED_FACE ( 'NONE', ( #173 ), #284, .T. ) ;
#193 = CIRCLE ( 'NONE', #169, 20.00000000000000000 ) ;
#194 = VECTOR ( 'NONE', #64, 1000.000000000000000 ) ;
#195 = ORIENTED_EDGE ( 'NONE', *, *, #157, .T. ) ;
#196 = ORIENTED_EDGE ( 'NONE', *, *, #143, .T. ) ;
#197 = PERSON ( 'NEURÈENÝ', 'NEURÈENÝ', 'NEURÈENÝ', ('NEURÈENÝ'), ('NEURÈENÝ'), ('NEURÈENÝ') ) ;
#198 = EDGE_LOOP ( 'NONE', ( #163, #196 ) ) ;
#199 = LINE ( 'NONE', #47, #138 ) ;
#200 = EDGE_CURVE ( 'NONE', #275, #291, #184, .T. ) ;
#201 = ORIENTED_EDGE ( 'NONE', *, *, #200, .F. ) ;
#202 = CARTESIAN_POINT ( 'NONE',  ( 0.000000000000000000, 0.000000000000000000, 10.00000000000000000 ) ) ;
#203 = FACE_OUTER_BOUND ( 'NONE', #29, .T. ) ;
#204 = DIRECTION ( 'NONE',  ( -0.000000000000000000, -0.000000000000000000, -1.000000000000000000 ) ) ;
#205 = CARTESIAN_POINT ( 'NONE',  ( 0.000000000000000000, 0.000000000000000000, 10.00000000000000000 ) ) ;
#206 = SECURITY_CLASSIFICATION ( '', '', #117 ) ;
#207 = ADVANCED_FACE ( 'NONE', ( #203 ), #302, .T. ) ;
#208 = FACE_OUTER_BOUND ( 'NONE', #297, .T. ) ;
#209 = CARTESIAN_POINT ( 'NONE',  ( 16.00000000000000000, 1.959434878635765131E-15, 640.0000000000000000 ) ) ;
#210 =( LENGTH_UNIT ( ) NAMED_UNIT ( * ) SI_UNIT ( .MILLI., .METRE. ) );
#211 = DIRECTION ( 'NONE',  ( -0.000000000000000000, -0.000000000000000000, -1.000000000000000000 ) ) ;
#212 = AXIS2_PLACEMENT_3D ( 'NONE', #282, #42, #66 ) ;
#213 = EDGE_LOOP ( 'NONE', ( #116, #15, #243, #299 ) ) ;
#214 = APPROVAL_DATE_TIME ( #53, #77 ) ;
#215 = ORIENTED_EDGE ( 'NONE', *, *, #97, .F. ) ;
#216 = CALENDAR_DATE ( 2022, 7, 7 ) ;
#217 = CARTESIAN_POINT ( 'NONE',  ( 0.000000000000000000, 0.000000000000000000, 10.19999999999998685 ) ) ;
#218 = ADVANCED_FACE ( 'NONE', ( #156 ), #269, .F. ) ;
#219 = LINE ( 'NONE', #10, #226 ) ;
#220 = AXIS2_PLACEMENT_3D ( 'NONE', #62, #20, #304 ) ;
#221 = AXIS2_PLACEMENT_3D ( 'NONE', #84, #161, #175 ) ;
#222 = APPLICATION_CONTEXT ( 'configuration controlled 3d designs of mechanical parts and assemblies' ) ;
#223 = AXIS2_PLACEMENT_3D ( 'NONE', #306, #41, #36 ) ;
#224 = ORIENTED_EDGE ( 'NONE', *, *, #101, .T. ) ;
#225 = AXIS2_PLACEMENT_3D ( 'NONE', #238, #159, #262 ) ;
#226 = VECTOR ( 'NONE', #98, 1000.000000000000000 ) ;
#227 = ADVANCED_BREP_SHAPE_REPRESENTATION ( '26ee', ( #52, #168 ), #295 ) ;
#228 = AXIS2_PLACEMENT_3D ( 'NONE', #107, #204, #105 ) ;
#229 = PRODUCT_RELATED_PRODUCT_CATEGORY ( 'detail', '', ( #34 ) ) ;
#230 = COORDINATED_UNIVERSAL_TIME_OFFSET ( 1, 0, .AHEAD. ) ;
#231 = CIRCLE ( 'NONE', #144, 16.00000000000000000 ) ;
#232 = DIRECTION ( 'NONE',  ( 0.000000000000000000, 0.000000000000000000, 1.000000000000000000 ) ) ;
#233 = EDGE_LOOP ( 'NONE', ( #26, #289, #162, #126 ) ) ;
#234 = CARTESIAN_POINT ( 'NONE',  ( 0.000000000000000000, 0.000000000000000000, 10.00000000000000000 ) ) ;
#235 = DIRECTION ( 'NONE',  ( 0.000000000000000000, 0.000000000000000000, 1.000000000000000000 ) ) ;
#236 = FACE_OUTER_BOUND ( 'NONE', #250, .T. ) ;
#237 = CARTESIAN_POINT ( 'NONE',  ( 16.19999999999999929, 0.000000000000000000, 10.19999999999998685 ) ) ;
#238 = CARTESIAN_POINT ( 'NONE',  ( 0.000000000000000000, 0.000000000000000000, 10.19999999999998685 ) ) ;
#239 = LOCAL_TIME ( 11, 29, 3.000000000000000000, #261 ) ;
#240 = CALENDAR_DATE ( 2022, 7, 7 ) ;
#241 = DIRECTION ( 'NONE',  ( -0.000000000000000000, -0.000000000000000000, -1.000000000000000000 ) ) ;
#242 = DATE_AND_TIME ( #216, #245 ) ;
#243 = ORIENTED_EDGE ( 'NONE', *, *, #97, .T. ) ;
#244 = CARTESIAN_POINT ( 'NONE',  ( 16.00000000000000000, 1.959434878635765131E-15, 10.19999999999998685 ) ) ;
#245 = LOCAL_TIME ( 11, 29, 3.000000000000000000, #6 ) ;
#246 = DIRECTION ( 'NONE',  ( 0.000000000000000000, 0.000000000000000000, 1.000000000000000000 ) ) ;
#247 = PERSON_AND_ORGANIZATION ( #197, #45 ) ;
#248 = ORIENTED_EDGE ( 'NONE', *, *, #296, .F. ) ;
#249 = ADVANCED_FACE ( 'NONE', ( #259 ), #46, .F. ) ;
#250 = EDGE_LOOP ( 'NONE', ( #167, #253 ) ) ;
#251 = EDGE_CURVE ( 'NONE', #291, #95, #193, .T. ) ;
#252 = ADVANCED_FACE ( 'NONE', ( #85, #236 ), #151, .T. ) ;
#253 = ORIENTED_EDGE ( 'NONE', *, *, #296, .T. ) ;
#254 = DIRECTION ( 'NONE',  ( 0.000000000000000000, 0.000000000000000000, 1.000000000000000000 ) ) ;
#255 = DIRECTION ( 'NONE',  ( -0.000000000000000000, -0.000000000000000000, -1.000000000000000000 ) ) ;
#256 = DIRECTION ( 'NONE',  ( 1.000000000000000000, 0.000000000000000000, -0.000000000000000000 ) ) ;
#257 = DIRECTION ( 'NONE',  ( 1.000000000000000000, 0.000000000000000000, 0.000000000000000000 ) ) ;
#258 = MECHANICAL_CONTEXT ( 'NONE', #166, 'mechanical' ) ;
#259 = FACE_OUTER_BOUND ( 'NONE', #267, .T. ) ;
#260 = APPROVAL ( #91, 'NEURÈENÝ' ) ;
#261 = COORDINATED_UNIVERSAL_TIME_OFFSET ( 1, 0, .AHEAD. ) ;
#262 = DIRECTION ( 'NONE',  ( 1.000000000000000000, 0.000000000000000000, 0.000000000000000000 ) ) ;
#263 = PERSON_AND_ORGANIZATION ( #197, #45 ) ;
#264 = DIRECTION ( 'NONE',  ( -0.000000000000000000, -0.000000000000000000, -1.000000000000000000 ) ) ;
#265 = PERSON_AND_ORGANIZATION_ROLE ( 'design_supplier' ) ;
#266 = EDGE_LOOP ( 'NONE', ( #54, #195, #270, #215 ) ) ;
#267 = EDGE_LOOP ( 'NONE', ( #83, #301 ) ) ;
#268 = APPROVAL_PERSON_ORGANIZATION ( #65, #32, #158 ) ;
#269 = TOROIDAL_SURFACE ( 'NONE', #225, 16.19999999999999929, 0.2000000000000000111 ) ;
#270 = ORIENTED_EDGE ( 'NONE', *, *, #79, .T. ) ;
#271 = AXIS2_PLACEMENT_3D ( 'NONE', #191, #293, #136 ) ;
#272 = CC_DESIGN_APPROVAL ( #77, ( #176 ) ) ;
#273 = AXIS2_PLACEMENT_3D ( 'NONE', #281, #235, #111 ) ;
#274 = PRODUCT_DEFINITION_SHAPE ( 'NONE', 'NONE',  #59 ) ;
#275 = VERTEX_POINT ( 'NONE', #127 ) ;
#276 = APPROVAL_ROLE ( '' ) ;
#277 = DIRECTION ( 'NONE',  ( 0.000000000000000000, 0.000000000000000000, -1.000000000000000000 ) ) ;
#278 = CIRCLE ( 'NONE', #271, 16.00000000000000000 ) ;
#279 = LOCAL_TIME ( 11, 29, 3.000000000000000000, #290 ) ;
#280 = CLOSED_SHELL ( 'NONE', ( #133, #287, #207, #305, #252, #249, #102, #192, #218 ) ) ;
#281 = CARTESIAN_POINT ( 'NONE',  ( 0.000000000000000000, 0.000000000000000000, 640.0000000000000000 ) ) ;
#282 = CARTESIAN_POINT ( 'NONE',  ( 0.000000000000000000, 0.000000000000000000, 640.0000000000000000 ) ) ;
#283 = APPLICATION_PROTOCOL_DEFINITION ( 'international standard', 'config_control_design', 1994, #222 ) ;
#284 = PLANE ( 'NONE',  #212 ) ;
#285 = APPROVAL_STATUS ( 'not_yet_approved' ) ;
#286 = DIRECTION ( 'NONE',  ( 1.000000000000000000, 0.000000000000000000, -0.000000000000000000 ) ) ;
#287 = ADVANCED_FACE ( 'NONE', ( #60 ), #154, .T. ) ;
#288 = CARTESIAN_POINT ( 'NONE',  ( -16.19999999999999929, 1.983927814618711846E-15, 9.999999999999992895 ) ) ;
#289 = ORIENTED_EDGE ( 'NONE', *, *, #55, .T. ) ;
#290 = COORDINATED_UNIVERSAL_TIME_OFFSET ( 1, 0, .AHEAD. ) ;
#291 = VERTEX_POINT ( 'NONE', #182 ) ;
#292 = AXIS2_PLACEMENT_3D ( 'NONE', #234, #19, #89 ) ;
#293 = DIRECTION ( 'NONE',  ( 0.000000000000000000, 0.000000000000000000, 1.000000000000000000 ) ) ;
#294 = AXIS2_PLACEMENT_3D ( 'NONE', #2, #90, #286 ) ;
#295 =( GEOMETRIC_REPRESENTATION_CONTEXT ( 3 ) GLOBAL_UNCERTAINTY_ASSIGNED_CONTEXT ( ( #33 ) ) GLOBAL_UNIT_ASSIGNED_CONTEXT ( ( #210, #22, #63 ) ) REPRESENTATION_CONTEXT ( 'NONE', 'WORKASPACE' ) );
#296 = EDGE_CURVE ( 'NONE', #3, #275, #120, .T. ) ;
#297 = EDGE_LOOP ( 'NONE', ( #72, #5, #35, #185 ) ) ;
#298 = CC_DESIGN_PERSON_AND_ORGANIZATION_ASSIGNMENT ( #28, #186, ( #206 ) ) ;
#299 = ORIENTED_EDGE ( 'NONE', *, *, #177, .T. ) ;
#300 = DATE_AND_TIME ( #16, #37 ) ;
#301 = ORIENTED_EDGE ( 'NONE', *, *, #69, .F. ) ;
#302 = CYLINDRICAL_SURFACE ( 'NONE', #221, 20.00000000000000000 ) ;
#303 = CC_DESIGN_DATE_AND_TIME_ASSIGNMENT ( #48, #141, ( #206 ) ) ;
#304 = DIRECTION ( 'NONE',  ( 1.000000000000000000, 0.000000000000000000, 0.000000000000000000 ) ) ;
#305 = ADVANCED_FACE ( 'NONE', ( #208 ), #40, .T. ) ;
#306 = CARTESIAN_POINT ( 'NONE',  ( 0.000000000000000000, 0.000000000000000000, 640.0000000000000000 ) ) ;
#307 = CARTESIAN_POINT ( 'NONE',  ( 0.000000000000000000, 0.000000000000000000, 10.00000000000000000 ) ) ;
ENDSEC;
END-ISO-10303-21;
