ISO-10303-21;
HEADER;
FILE_DESCRIPTION (( 'STEP AP203' ),
    '1' );
FILE_NAME ('88d2.STEP',
    '2022-07-07T10:39:41',
    ( '' ),
    ( '' ),
    'SwSTEP 2.0',
    'SolidWorks 2019',
    '' );
FILE_SCHEMA (( 'CONFIG_CONTROL_DESIGN' ));
ENDSEC;

DATA;
#1 = DIRECTION ( 'NONE',  ( -0.000000000000000000, -0.000000000000000000, -1.000000000000000000 ) ) ;
#2 = DIRECTION ( 'NONE',  ( 1.000000000000000000, 0.000000000000000000, 0.000000000000000000 ) ) ;
#3 = ORGANIZATION ( 'NEURÈENÝ', 'NEURÈENÝ', '' ) ;
#4 = ORIENTED_EDGE ( 'NONE', *, *, #138, .F. ) ;
#5 = DIRECTION ( 'NONE',  ( 1.000000000000000000, 0.000000000000000000, 0.000000000000000000 ) ) ;
#6 = CARTESIAN_POINT ( 'NONE',  ( 0.000000000000000000, 0.000000000000000000, 126.5000000000000000 ) ) ;
#7 = VERTEX_POINT ( 'NONE', #169 ) ;
#8 = DIRECTION ( 'NONE',  ( 0.000000000000000000, 0.000000000000000000, 1.000000000000000000 ) ) ;
#9 = CARTESIAN_POINT ( 'NONE',  ( 0.000000000000000000, 0.000000000000000000, 1.500000000000000000 ) ) ;
#10 = LINE ( 'NONE', #100, #136 ) ;
#11 = APPLICATION_PROTOCOL_DEFINITION ( 'international standard', 'config_control_design', 1994, #123 ) ;
#12 = AXIS2_PLACEMENT_3D ( 'NONE', #81, #280, #130 ) ;
#13 = AXIS2_PLACEMENT_3D ( 'NONE', #6, #109, #151 ) ;
#14 = CC_DESIGN_PERSON_AND_ORGANIZATION_ASSIGNMENT ( #298, #64, ( #159 ) ) ;
#15 = PERSON_AND_ORGANIZATION ( #47, #3 ) ;
#16 = COORDINATED_UNIVERSAL_TIME_OFFSET ( 1, 0, .AHEAD. ) ;
#17 = CC_DESIGN_DATE_AND_TIME_ASSIGNMENT ( #91, #209, ( #258 ) ) ;
#18 = TOROIDAL_SURFACE ( 'NONE', #139, 0.9000000000000000222, 0.2000000000000000111 ) ;
#19 = COORDINATED_UNIVERSAL_TIME_OFFSET ( 1, 0, .AHEAD. ) ;
#20 = EDGE_CURVE ( 'NONE', #285, #26, #92, .T. ) ;
#21 = DESIGN_CONTEXT ( 'detailed design', #178, 'design' ) ;
#22 = ORIENTED_EDGE ( 'NONE', *, *, #138, .T. ) ;
#23 =( GEOMETRIC_REPRESENTATION_CONTEXT ( 3 ) GLOBAL_UNCERTAINTY_ASSIGNED_CONTEXT ( ( #115 ) ) GLOBAL_UNIT_ASSIGNED_CONTEXT ( ( #196, #35, #230 ) ) REPRESENTATION_CONTEXT ( 'NONE', 'WORKASPACE' ) );
#24 = ORIENTED_EDGE ( 'NONE', *, *, #202, .T. ) ;
#25 = DIRECTION ( 'NONE',  ( 1.000000000000000000, 0.000000000000000000, 0.000000000000000000 ) ) ;
#26 = VERTEX_POINT ( 'NONE', #27 ) ;
#27 = CARTESIAN_POINT ( 'NONE',  ( -0.6999999999999999556, 0.000000000000000000, 126.5000000000000000 ) ) ;
#28 = DIRECTION ( 'NONE',  ( 0.000000000000000000, 0.000000000000000000, 1.000000000000000000 ) ) ;
#29 = EDGE_CURVE ( 'NONE', #285, #68, #10, .T. ) ;
#30 = ORIENTED_EDGE ( 'NONE', *, *, #185, .T. ) ;
#31 = DIRECTION ( 'NONE',  ( 0.000000000000000000, 0.000000000000000000, 1.000000000000000000 ) ) ;
#32 = ORIENTED_EDGE ( 'NONE', *, *, #220, .F. ) ;
#33 = FACE_OUTER_BOUND ( 'NONE', #237, .T. ) ;
#34 = ORIENTED_EDGE ( 'NONE', *, *, #301, .F. ) ;
#35 =( NAMED_UNIT ( * ) PLANE_ANGLE_UNIT ( ) SI_UNIT ( $, .RADIAN. ) );
#36 = ADVANCED_FACE ( 'NONE', ( #166 ), #247, .T. ) ;
#37 = CARTESIAN_POINT ( 'NONE',  ( 0.6999999999999999556, 8.572527594031471957E-17, 126.5000000000000000 ) ) ;
#38 = CARTESIAN_POINT ( 'NONE',  ( 0.000000000000000000, 0.000000000000000000, 0.000000000000000000 ) ) ;
#39 = COORDINATED_UNIVERSAL_TIME_OFFSET ( 1, 0, .AHEAD. ) ;
#40 = DATE_AND_TIME ( #257, #223 ) ;
#41 = AXIS2_PLACEMENT_3D ( 'NONE', #241, #307, #99 ) ;
#42 = EDGE_CURVE ( 'NONE', #224, #68, #279, .T. ) ;
#43 = APPROVAL_ROLE ( '' ) ;
#44 = APPROVAL_PERSON_ORGANIZATION ( #135, #77, #43 ) ;
#45 = CLOSED_SHELL ( 'NONE', ( #167, #88, #36, #189, #240, #95, #281, #84, #74 ) ) ;
#46 = ORIENTED_EDGE ( 'NONE', *, *, #268, .F. ) ;
#47 = PERSON ( 'NEURÈENÝ', 'NEURÈENÝ', 'NEURÈENÝ', ('NEURÈENÝ'), ('NEURÈENÝ'), ('NEURÈENÝ') ) ;
#48 = APPROVAL ( #204, 'NEURÈENÝ' ) ;
#49 = EDGE_LOOP ( 'NONE', ( #262, #78 ) ) ;
#50 = DIRECTION ( 'NONE',  ( 0.000000000000000000, 0.000000000000000000, 1.000000000000000000 ) ) ;
#51 = ORIENTED_EDGE ( 'NONE', *, *, #274, .T. ) ;
#52 = CARTESIAN_POINT ( 'NONE',  ( 0.000000000000000000, 0.000000000000000000, 0.000000000000000000 ) ) ;
#53 = ORIENTED_EDGE ( 'NONE', *, *, #29, .T. ) ;
#54 = DIRECTION ( 'NONE',  ( -0.000000000000000000, -0.000000000000000000, -1.000000000000000000 ) ) ;
#55 = DIRECTION ( 'NONE',  ( -0.000000000000000000, -0.000000000000000000, -1.000000000000000000 ) ) ;
#56 = DIRECTION ( 'NONE',  ( 0.000000000000000000, 0.000000000000000000, -1.000000000000000000 ) ) ;
#57 = DIRECTION ( 'NONE',  ( 1.000000000000000000, 0.000000000000000000, -0.000000000000000000 ) ) ;
#58 = AXIS2_PLACEMENT_3D ( 'NONE', #148, #198, #249 ) ;
#59 = CARTESIAN_POINT ( 'NONE',  ( -0.6999999999999999556, 0.000000000000000000, 1.700000000000007061 ) ) ;
#60 = DIRECTION ( 'NONE',  ( 0.000000000000000000, 0.000000000000000000, 1.000000000000000000 ) ) ;
#61 = FACE_OUTER_BOUND ( 'NONE', #124, .T. ) ;
#62 = MECHANICAL_CONTEXT ( 'NONE', #123, 'mechanical' ) ;
#63 = EDGE_CURVE ( 'NONE', #287, #217, #218, .T. ) ;
#64 = PERSON_AND_ORGANIZATION_ROLE ( 'classification_officer' ) ;
#65 = PERSON_AND_ORGANIZATION ( #47, #3 ) ;
#66 = AXIS2_PLACEMENT_3D ( 'NONE', #193, #126, #25 ) ;
#67 = PERSON_AND_ORGANIZATION_ROLE ( 'creator' ) ;
#68 = VERTEX_POINT ( 'NONE', #173 ) ;
#69 = CC_DESIGN_APPROVAL ( #48, ( #125 ) ) ;
#70 = CIRCLE ( 'NONE', #66, 0.6999999999999999556 ) ;
#71 = CC_DESIGN_PERSON_AND_ORGANIZATION_ASSIGNMENT ( #65, #272, ( #258 ) ) ;
#72 = ORIENTED_EDGE ( 'NONE', *, *, #20, .F. ) ;
#73 = CARTESIAN_POINT ( 'NONE',  ( 0.000000000000000000, 0.000000000000000000, 126.5000000000000000 ) ) ;
#74 = ADVANCED_FACE ( 'NONE', ( #106 ), #18, .F. ) ;
#75 = ORIENTED_EDGE ( 'NONE', *, *, #20, .T. ) ;
#76 = FACE_OUTER_BOUND ( 'NONE', #141, .T. ) ;
#77 = APPROVAL ( #234, 'NEURÈENÝ' ) ;
#78 = ORIENTED_EDGE ( 'NONE', *, *, #63, .T. ) ;
#79 = DIRECTION ( 'NONE',  ( 0.000000000000000000, -1.000000000000000000, 0.000000000000000000 ) ) ;
#80 = DIRECTION ( 'NONE',  ( 0.000000000000000000, 0.000000000000000000, 1.000000000000000000 ) ) ;
#81 = CARTESIAN_POINT ( 'NONE',  ( -0.9000000000000000222, 1.102182119232617788E-16, 1.700000000000007061 ) ) ;
#82 = LINE ( 'NONE', #102, #157 ) ;
#83 = ORIENTED_EDGE ( 'NONE', *, *, #210, .F. ) ;
#84 = ADVANCED_FACE ( 'NONE', ( #76 ), #226, .T. ) ;
#85 = APPROVAL_PERSON_ORGANIZATION ( #295, #48, #112 ) ;
#86 = CARTESIAN_POINT ( 'NONE',  ( 0.000000000000000000, 0.000000000000000000, 1.700000000000007061 ) ) ;
#87 = LINE ( 'NONE', #292, #303 ) ;
#88 = ADVANCED_FACE ( 'NONE', ( #168 ), #283, .T. ) ;
#89 = CALENDAR_DATE ( 2022, 7, 7 ) ;
#90 = VECTOR ( 'NONE', #186, 1000.000000000000000 ) ;
#91 = DATE_AND_TIME ( #113, #190 ) ;
#92 = CIRCLE ( 'NONE', #250, 0.6999999999999999556 ) ;
#93 = CIRCLE ( 'NONE', #269, 0.6999999999999999556 ) ;
#94 = PLANE ( 'NONE',  #207 ) ;
#95 = ADVANCED_FACE ( 'NONE', ( #33 ), #94, .F. ) ;
#96 = ORIENTED_EDGE ( 'NONE', *, *, #220, .T. ) ;
#97 = CARTESIAN_POINT ( 'NONE',  ( 0.000000000000000000, 0.000000000000000000, 1.500000000000000000 ) ) ;
#98 = ORIENTED_EDGE ( 'NONE', *, *, #301, .T. ) ;
#99 = DIRECTION ( 'NONE',  ( 1.000000000000000000, 0.000000000000000000, 0.000000000000000000 ) ) ;
#100 = CARTESIAN_POINT ( 'NONE',  ( 0.6999999999999999556, 8.572527594031471957E-17, 126.5000000000000000 ) ) ;
#101 = DIRECTION ( 'NONE',  ( 1.000000000000000000, 0.000000000000000000, -0.000000000000000000 ) ) ;
#102 = CARTESIAN_POINT ( 'NONE',  ( 1.500000000000000222, 1.836970198721030181E-16, 1.500000000000000000 ) ) ;
#103 = ORIENTED_EDGE ( 'NONE', *, *, #274, .F. ) ;
#104 = DIRECTION ( 'NONE',  ( -1.000000000000000000, 0.000000000000000000, 0.000000000000000000 ) ) ;
#105 = PLANE ( 'NONE',  #284 ) ;
#106 = FACE_OUTER_BOUND ( 'NONE', #245, .T. ) ;
#107 = AXIS2_PLACEMENT_3D ( 'NONE', #260, #267, #2 ) ;
#108 = EDGE_CURVE ( 'NONE', #26, #224, #244, .T. ) ;
#109 = DIRECTION ( 'NONE',  ( -0.000000000000000000, -0.000000000000000000, -1.000000000000000000 ) ) ;
#110 = CALENDAR_DATE ( 2022, 7, 7 ) ;
#111 = CALENDAR_DATE ( 2022, 7, 7 ) ;
#112 = APPROVAL_ROLE ( '' ) ;
#113 = CALENDAR_DATE ( 2022, 7, 7 ) ;
#114 = CIRCLE ( 'NONE', #300, 1.500000000000000222 ) ;
#115 = UNCERTAINTY_MEASURE_WITH_UNIT (LENGTH_MEASURE( 1.000000000000000082E-05 ), #196, 'distance_accuracy_value', 'NONE');
#116 = ORIENTED_EDGE ( 'NONE', *, *, #210, .T. ) ;
#117 = PRODUCT_DEFINITION_SHAPE ( 'NONE', 'NONE',  #258 ) ;
#118 = CIRCLE ( 'NONE', #58, 0.9000000000000000222 ) ;
#119 = VERTEX_POINT ( 'NONE', #288 ) ;
#120 = EDGE_LOOP ( 'NONE', ( #34, #32, #51, #30 ) ) ;
#121 = FACE_OUTER_BOUND ( 'NONE', #243, .T. ) ;
#122 = DIRECTION ( 'NONE',  ( -1.000000000000000000, 0.000000000000000000, 0.000000000000000000 ) ) ;
#123 = APPLICATION_CONTEXT ( 'configuration controlled 3d designs of mechanical parts and assemblies' ) ;
#124 = EDGE_LOOP ( 'NONE', ( #259, #216, #231, #145 ) ) ;
#125 = PRODUCT_DEFINITION_FORMATION_WITH_SPECIFIED_SOURCE ( 'LIBOVOLNÝ', '', #144, .NOT_KNOWN. ) ;
#126 = DIRECTION ( 'NONE',  ( 0.000000000000000000, 0.000000000000000000, 1.000000000000000000 ) ) ;
#127 = DIRECTION ( 'NONE',  ( -0.000000000000000000, -0.000000000000000000, -1.000000000000000000 ) ) ;
#128 = EDGE_CURVE ( 'NONE', #26, #285, #70, .T. ) ;
#129 = CARTESIAN_POINT ( 'NONE',  ( 0.000000000000000000, 0.000000000000000000, 1.500000000000000000 ) ) ;
#130 = DIRECTION ( 'NONE',  ( -1.000000000000000000, 1.224646799147353207E-16, 0.000000000000000000 ) ) ;
#131 = ORIENTED_EDGE ( 'NONE', *, *, #213, .F. ) ;
#132 = CARTESIAN_POINT ( 'NONE',  ( 1.500000000000000222, 1.836970198721030181E-16, 0.000000000000000000 ) ) ;
#133 = CC_DESIGN_PERSON_AND_ORGANIZATION_ASSIGNMENT ( #275, #206, ( #125 ) ) ;
#134 = COORDINATED_UNIVERSAL_TIME_OFFSET ( 1, 0, .AHEAD. ) ;
#135 = PERSON_AND_ORGANIZATION ( #47, #3 ) ;
#136 = VECTOR ( 'NONE', #55, 1000.000000000000000 ) ;
#137 = CC_DESIGN_DATE_AND_TIME_ASSIGNMENT ( #40, #256, ( #159 ) ) ;
#138 = EDGE_CURVE ( 'NONE', #7, #212, #114, .T. ) ;
#139 = AXIS2_PLACEMENT_3D ( 'NONE', #150, #251, #143 ) ;
#140 = DIRECTION ( 'NONE',  ( 1.000000000000000000, 0.000000000000000000, 0.000000000000000000 ) ) ;
#141 = EDGE_LOOP ( 'NONE', ( #302, #75 ) ) ;
#142 = CARTESIAN_POINT ( 'NONE',  ( 0.000000000000000000, 0.000000000000000000, 1.700000000000007061 ) ) ;
#143 = DIRECTION ( 'NONE',  ( 1.000000000000000000, 0.000000000000000000, 0.000000000000000000 ) ) ;
#144 = PRODUCT ( '88d2', '88d2', '', ( #62 ) ) ;
#145 = ORIENTED_EDGE ( 'NONE', *, *, #42, .T. ) ;
#146 = FACE_OUTER_BOUND ( 'NONE', #120, .T. ) ;
#147 = ORIENTED_EDGE ( 'NONE', *, *, #202, .F. ) ;
#148 = CARTESIAN_POINT ( 'NONE',  ( 0.000000000000000000, 0.000000000000000000, 1.500000000000000000 ) ) ;
#149 = CIRCLE ( 'NONE', #41, 1.500000000000000222 ) ;
#150 = CARTESIAN_POINT ( 'NONE',  ( 0.000000000000000000, 0.000000000000000000, 1.700000000000007061 ) ) ;
#151 = DIRECTION ( 'NONE',  ( -1.000000000000000000, 0.000000000000000000, 0.000000000000000000 ) ) ;
#152 = DIRECTION ( 'NONE',  ( 1.000000000000000000, 0.000000000000000000, 0.000000000000000000 ) ) ;
#153 = CC_DESIGN_APPROVAL ( #77, ( #159 ) ) ;
#154 = DIRECTION ( 'NONE',  ( 0.000000000000000000, 0.000000000000000000, 1.000000000000000000 ) ) ;
#155 = APPROVAL_DATE_TIME ( #208, #48 ) ;
#156 = APPROVAL_PERSON_ORGANIZATION ( #15, #205, #232 ) ;
#157 = VECTOR ( 'NONE', #127, 1000.000000000000000 ) ;
#158 = APPROVAL_DATE_TIME ( #227, #205 ) ;
#159 = SECURITY_CLASSIFICATION ( '', '', #273 ) ;
#160 = ORIENTED_EDGE ( 'NONE', *, *, #185, .F. ) ;
#161 = EDGE_LOOP ( 'NONE', ( #96, #22 ) ) ;
#162 = DIRECTION ( 'NONE',  ( 1.000000000000000000, 0.000000000000000000, -0.000000000000000000 ) ) ;
#163 = DIRECTION ( 'NONE',  ( 1.000000000000000000, 0.000000000000000000, 0.000000000000000000 ) ) ;
#164 = CIRCLE ( 'NONE', #276, 0.2000000000000000944 ) ;
#165 = CARTESIAN_POINT ( 'NONE',  ( 0.000000000000000000, 0.000000000000000000, 1.500000000000000000 ) ) ;
#166 = FACE_OUTER_BOUND ( 'NONE', #182, .T. ) ;
#167 = ADVANCED_FACE ( 'NONE', ( #121 ), #261, .F. ) ;
#168 = FACE_OUTER_BOUND ( 'NONE', #266, .T. ) ;
#169 = CARTESIAN_POINT ( 'NONE',  ( 1.500000000000000222, 1.836970198721030181E-16, 1.500000000000000000 ) ) ;
#170 = CC_DESIGN_PERSON_AND_ORGANIZATION_ASSIGNMENT ( #180, #67, ( #125 ) ) ;
#171 = DIRECTION ( 'NONE',  ( -0.000000000000000000, -0.000000000000000000, -1.000000000000000000 ) ) ;
#172 = FACE_OUTER_BOUND ( 'NONE', #161, .T. ) ;
#173 = CARTESIAN_POINT ( 'NONE',  ( 0.6999999999999999556, 8.572527594031471957E-17, 1.700000000000007061 ) ) ;
#174 = LOCAL_TIME ( 12, 39, 41.00000000000000000, #16 ) ;
#175 = AXIS2_PLACEMENT_3D ( 'NONE', #142, #221, #197 ) ;
#176 = APPROVAL_STATUS ( 'not_yet_approved' ) ;
#177 = SHAPE_DEFINITION_REPRESENTATION ( #117, #184 ) ;
#178 = APPLICATION_CONTEXT ( 'configuration controlled 3d designs of mechanical parts and assemblies' ) ;
#179 = COORDINATED_UNIVERSAL_TIME_OFFSET ( 1, 0, .AHEAD. ) ;
#180 = PERSON_AND_ORGANIZATION ( #47, #3 ) ;
#181 = EDGE_CURVE ( 'NONE', #224, #287, #297, .T. ) ;
#182 = EDGE_LOOP ( 'NONE', ( #4, #98, #24, #103 ) ) ;
#183 = AXIS2_PLACEMENT_3D ( 'NONE', #165, #54, #263 ) ;
#184 = ADVANCED_BREP_SHAPE_REPRESENTATION ( '88d2', ( #199, #225 ), #23 ) ;
#185 = EDGE_CURVE ( 'NONE', #119, #306, #248, .T. ) ;
#186 = DIRECTION ( 'NONE',  ( -0.000000000000000000, -0.000000000000000000, -1.000000000000000000 ) ) ;
#187 = ORIENTED_EDGE ( 'NONE', *, *, #42, .F. ) ;
#188 = CARTESIAN_POINT ( 'NONE',  ( 0.000000000000000000, 0.000000000000000000, 126.5000000000000000 ) ) ;
#189 = ADVANCED_FACE ( 'NONE', ( #146 ), #265, .T. ) ;
#190 = LOCAL_TIME ( 12, 39, 41.00000000000000000, #39 ) ;
#191 = ORIENTED_EDGE ( 'NONE', *, *, #63, .F. ) ;
#192 = AXIS2_PLACEMENT_3D ( 'NONE', #228, #1, #290 ) ;
#193 = CARTESIAN_POINT ( 'NONE',  ( 0.000000000000000000, 0.000000000000000000, 126.5000000000000000 ) ) ;
#194 = ORIENTED_EDGE ( 'NONE', *, *, #181, .F. ) ;
#195 = CARTESIAN_POINT ( 'NONE',  ( -0.6999999999999999556, 0.000000000000000000, 126.5000000000000000 ) ) ;
#196 =( LENGTH_UNIT ( ) NAMED_UNIT ( * ) SI_UNIT ( .MILLI., .METRE. ) );
#197 = DIRECTION ( 'NONE',  ( 1.000000000000000000, 0.000000000000000000, 0.000000000000000000 ) ) ;
#198 = DIRECTION ( 'NONE',  ( -0.000000000000000000, -0.000000000000000000, -1.000000000000000000 ) ) ;
#199 = MANIFOLD_SOLID_BREP ( 'Zaoblit1', #45 ) ;
#200 = DIRECTION ( 'NONE',  ( 0.000000000000000000, 0.000000000000000000, 1.000000000000000000 ) ) ;
#201 = CC_DESIGN_SECURITY_CLASSIFICATION ( #159, ( #125 ) ) ;
#202 = EDGE_CURVE ( 'NONE', #306, #119, #149, .T. ) ;
#203 = PERSON_AND_ORGANIZATION_ROLE ( 'design_owner' ) ;
#204 = APPROVAL_STATUS ( 'not_yet_approved' ) ;
#205 = APPROVAL ( #176, 'NEURÈENÝ' ) ;
#206 = PERSON_AND_ORGANIZATION_ROLE ( 'design_supplier' ) ;
#207 = AXIS2_PLACEMENT_3D ( 'NONE', #52, #50, #162 ) ;
#208 = DATE_AND_TIME ( #89, #296 ) ;
#209 = DATE_TIME_ROLE ( 'creation_date' ) ;
#210 = EDGE_CURVE ( 'NONE', #68, #217, #164, .T. ) ;
#211 = PRODUCT_RELATED_PRODUCT_CATEGORY ( 'detail', '', ( #144 ) ) ;
#212 = VERTEX_POINT ( 'NONE', #246 ) ;
#213 = EDGE_CURVE ( 'NONE', #217, #287, #118, .T. ) ;
#214 = CC_DESIGN_APPROVAL ( #205, ( #258 ) ) ;
#215 = CIRCLE ( 'NONE', #235, 1.500000000000000222 ) ;
#216 = ORIENTED_EDGE ( 'NONE', *, *, #128, .F. ) ;
#217 = VERTEX_POINT ( 'NONE', #229 ) ;
#218 = CIRCLE ( 'NONE', #192, 0.9000000000000000222 ) ;
#219 = CARTESIAN_POINT ( 'NONE',  ( 0.000000000000000000, 0.000000000000000000, 1.700000000000007061 ) ) ;
#220 = EDGE_CURVE ( 'NONE', #212, #7, #215, .T. ) ;
#221 = DIRECTION ( 'NONE',  ( 0.000000000000000000, 0.000000000000000000, 1.000000000000000000 ) ) ;
#222 = DIRECTION ( 'NONE',  ( 0.000000000000000000, 0.000000000000000000, 1.000000000000000000 ) ) ;
#223 = LOCAL_TIME ( 12, 39, 41.00000000000000000, #19 ) ;
#224 = VERTEX_POINT ( 'NONE', #59 ) ;
#225 = AXIS2_PLACEMENT_3D ( 'NONE', #38, #60, #294 ) ;
#226 = PLANE ( 'NONE',  #239 ) ;
#227 = DATE_AND_TIME ( #111, #174 ) ;
#228 = CARTESIAN_POINT ( 'NONE',  ( 0.000000000000000000, 0.000000000000000000, 1.500000000000000000 ) ) ;
#229 = CARTESIAN_POINT ( 'NONE',  ( 0.9000000000000000222, 0.000000000000000000, 1.500000000000003553 ) ) ;
#230 =( NAMED_UNIT ( * ) SI_UNIT ( $, .STERADIAN. ) SOLID_ANGLE_UNIT ( ) );
#231 = ORIENTED_EDGE ( 'NONE', *, *, #108, .T. ) ;
#232 = APPROVAL_ROLE ( '' ) ;
#233 = LOCAL_TIME ( 12, 39, 41.00000000000000000, #179 ) ;
#234 = APPROVAL_STATUS ( 'not_yet_approved' ) ;
#235 = AXIS2_PLACEMENT_3D ( 'NONE', #291, #8, #305 ) ;
#236 = AXIS2_PLACEMENT_3D ( 'NONE', #219, #222, #140 ) ;
#237 = EDGE_LOOP ( 'NONE', ( #160, #147 ) ) ;
#238 = ORIENTED_EDGE ( 'NONE', *, *, #181, .T. ) ;
#239 = AXIS2_PLACEMENT_3D ( 'NONE', #73, #31, #101 ) ;
#240 = ADVANCED_FACE ( 'NONE', ( #289, #172 ), #105, .T. ) ;
#241 = CARTESIAN_POINT ( 'NONE',  ( 0.000000000000000000, 0.000000000000000000, 0.000000000000000000 ) ) ;
#242 = ORIENTED_EDGE ( 'NONE', *, *, #268, .T. ) ;
#243 = EDGE_LOOP ( 'NONE', ( #187, #238, #131, #83 ) ) ;
#244 = LINE ( 'NONE', #195, #90 ) ;
#245 = EDGE_LOOP ( 'NONE', ( #194, #46, #116, #191 ) ) ;
#246 = CARTESIAN_POINT ( 'NONE',  ( -1.500000000000000222, 0.000000000000000000, 1.500000000000000000 ) ) ;
#247 = CYLINDRICAL_SURFACE ( 'NONE', #304, 1.500000000000000222 ) ;
#248 = CIRCLE ( 'NONE', #107, 1.500000000000000222 ) ;
#249 = DIRECTION ( 'NONE',  ( 1.000000000000000000, 0.000000000000000000, 0.000000000000000000 ) ) ;
#250 = AXIS2_PLACEMENT_3D ( 'NONE', #282, #80, #163 ) ;
#251 = DIRECTION ( 'NONE',  ( 0.000000000000000000, 0.000000000000000000, 1.000000000000000000 ) ) ;
#252 = CYLINDRICAL_SURFACE ( 'NONE', #13, 0.6999999999999999556 ) ;
#253 = CARTESIAN_POINT ( 'NONE',  ( -0.9000000000000000222, 1.102182119232617788E-16, 1.500000000000003553 ) ) ;
#254 = AXIS2_PLACEMENT_3D ( 'NONE', #188, #171, #104 ) ;
#255 = DATE_AND_TIME ( #110, #233 ) ;
#256 = DATE_TIME_ROLE ( 'classification_date' ) ;
#257 = CALENDAR_DATE ( 2022, 7, 7 ) ;
#258 = PRODUCT_DEFINITION ( 'NEZNÁMÝ', '', #125, #21 ) ;
#259 = ORIENTED_EDGE ( 'NONE', *, *, #29, .F. ) ;
#260 = CARTESIAN_POINT ( 'NONE',  ( 0.000000000000000000, 0.000000000000000000, 0.000000000000000000 ) ) ;
#261 = TOROIDAL_SURFACE ( 'NONE', #236, 0.9000000000000000222, 0.2000000000000000111 ) ;
#262 = ORIENTED_EDGE ( 'NONE', *, *, #213, .T. ) ;
#263 = DIRECTION ( 'NONE',  ( -1.000000000000000000, 0.000000000000000000, 0.000000000000000000 ) ) ;
#264 = DIRECTION ( 'NONE',  ( -0.000000000000000000, -0.000000000000000000, -1.000000000000000000 ) ) ;
#265 = CYLINDRICAL_SURFACE ( 'NONE', #183, 1.500000000000000222 ) ;
#266 = EDGE_LOOP ( 'NONE', ( #72, #53, #242, #278 ) ) ;
#267 = DIRECTION ( 'NONE',  ( 0.000000000000000000, 0.000000000000000000, 1.000000000000000000 ) ) ;
#268 = EDGE_CURVE ( 'NONE', #68, #224, #93, .T. ) ;
#269 = AXIS2_PLACEMENT_3D ( 'NONE', #86, #200, #152 ) ;
#270 = DIRECTION ( 'NONE',  ( -0.000000000000000000, -0.000000000000000000, -1.000000000000000000 ) ) ;
#271 = PERSON_AND_ORGANIZATION ( #47, #3 ) ;
#272 = PERSON_AND_ORGANIZATION_ROLE ( 'creator' ) ;
#273 = SECURITY_CLASSIFICATION_LEVEL ( 'unclassified' ) ;
#274 = EDGE_CURVE ( 'NONE', #212, #119, #87, .T. ) ;
#275 = PERSON_AND_ORGANIZATION ( #47, #3 ) ;
#276 = AXIS2_PLACEMENT_3D ( 'NONE', #286, #79, #56 ) ;
#277 = CC_DESIGN_PERSON_AND_ORGANIZATION_ASSIGNMENT ( #271, #203, ( #144 ) ) ;
#278 = ORIENTED_EDGE ( 'NONE', *, *, #108, .F. ) ;
#279 = CIRCLE ( 'NONE', #175, 0.6999999999999999556 ) ;
#280 = DIRECTION ( 'NONE',  ( 1.224646799147353207E-16, 1.000000000000000000, -0.000000000000000000 ) ) ;
#281 = ADVANCED_FACE ( 'NONE', ( #61 ), #252, .T. ) ;
#282 = CARTESIAN_POINT ( 'NONE',  ( 0.000000000000000000, 0.000000000000000000, 126.5000000000000000 ) ) ;
#283 = CYLINDRICAL_SURFACE ( 'NONE', #254, 0.6999999999999999556 ) ;
#284 = AXIS2_PLACEMENT_3D ( 'NONE', #9, #154, #57 ) ;
#285 = VERTEX_POINT ( 'NONE', #37 ) ;
#286 = CARTESIAN_POINT ( 'NONE',  ( 0.9000000000000000222, 0.000000000000000000, 1.700000000000007061 ) ) ;
#287 = VERTEX_POINT ( 'NONE', #253 ) ;
#288 = CARTESIAN_POINT ( 'NONE',  ( -1.500000000000000222, 0.000000000000000000, 0.000000000000000000 ) ) ;
#289 = FACE_BOUND ( 'NONE', #49, .T. ) ;
#290 = DIRECTION ( 'NONE',  ( 1.000000000000000000, 0.000000000000000000, 0.000000000000000000 ) ) ;
#291 = CARTESIAN_POINT ( 'NONE',  ( 0.000000000000000000, 0.000000000000000000, 1.500000000000000000 ) ) ;
#292 = CARTESIAN_POINT ( 'NONE',  ( -1.500000000000000222, 0.000000000000000000, 1.500000000000000000 ) ) ;
#293 = APPLICATION_PROTOCOL_DEFINITION ( 'international standard', 'config_control_design', 1994, #178 ) ;
#294 = DIRECTION ( 'NONE',  ( 1.000000000000000000, 0.000000000000000000, 0.000000000000000000 ) ) ;
#295 = PERSON_AND_ORGANIZATION ( #47, #3 ) ;
#296 = LOCAL_TIME ( 12, 39, 41.00000000000000000, #134 ) ;
#297 = CIRCLE ( 'NONE', #12, 0.2000000000000000944 ) ;
#298 = PERSON_AND_ORGANIZATION ( #47, #3 ) ;
#299 = APPROVAL_DATE_TIME ( #255, #77 ) ;
#300 = AXIS2_PLACEMENT_3D ( 'NONE', #97, #28, #5 ) ;
#301 = EDGE_CURVE ( 'NONE', #7, #306, #82, .T. ) ;
#302 = ORIENTED_EDGE ( 'NONE', *, *, #128, .T. ) ;
#303 = VECTOR ( 'NONE', #270, 1000.000000000000000 ) ;
#304 = AXIS2_PLACEMENT_3D ( 'NONE', #129, #264, #122 ) ;
#305 = DIRECTION ( 'NONE',  ( 1.000000000000000000, 0.000000000000000000, 0.000000000000000000 ) ) ;
#306 = VERTEX_POINT ( 'NONE', #132 ) ;
#307 = DIRECTION ( 'NONE',  ( 0.000000000000000000, 0.000000000000000000, 1.000000000000000000 ) ) ;
ENDSEC;
END-ISO-10303-21;
