ISO-10303-21;
HEADER;
FILE_DESCRIPTION (( 'STEP AP203' ),
    '1' );
FILE_NAME ('1f3a.STEP',
    '2022-07-07T10:04:03',
    ( '' ),
    ( '' ),
    'SwSTEP 2.0',
    'SolidWorks 2019',
    '' );
FILE_SCHEMA (( 'CONFIG_CONTROL_DESIGN' ));
ENDSEC;

DATA;
#1 = CYLINDRICAL_SURFACE ( 'NONE', #193, 4.000000000000000000 ) ;
#2 = PERSON_AND_ORGANIZATION ( #249, #172 ) ;
#3 = CARTESIAN_POINT ( 'NONE',  ( -4.200000000000000178, 5.143516556418882928E-16, 5.199999999999996625 ) ) ;
#4 = VECTOR ( 'NONE', #33, 1000.000000000000000 ) ;
#5 = PERSON_AND_ORGANIZATION ( #249, #172 ) ;
#6 = ORIENTED_EDGE ( 'NONE', *, *, #286, .F. ) ;
#7 = DIRECTION ( 'NONE',  ( 1.000000000000000000, 0.000000000000000000, 0.000000000000000000 ) ) ;
#8 = CIRCLE ( 'NONE', #86, 7.000000000000000000 ) ;
#9 = EDGE_CURVE ( 'NONE', #132, #11, #153, .T. ) ;
#10 = ORIENTED_EDGE ( 'NONE', *, *, #12, .T. ) ;
#11 = VERTEX_POINT ( 'NONE', #300 ) ;
#12 = EDGE_CURVE ( 'NONE', #295, #109, #266, .T. ) ;
#13 = AXIS2_PLACEMENT_3D ( 'NONE', #298, #163, #118 ) ;
#14 = ORIENTED_EDGE ( 'NONE', *, *, #9, .T. ) ;
#15 = DIRECTION ( 'NONE',  ( 1.000000000000000000, 0.000000000000000000, 0.000000000000000000 ) ) ;
#16 = SECURITY_CLASSIFICATION ( '', '', #195 ) ;
#17 = CARTESIAN_POINT ( 'NONE',  ( 0.000000000000000000, 0.000000000000000000, 5.000000000000000000 ) ) ;
#18 = EDGE_LOOP ( 'NONE', ( #180, #6 ) ) ;
#19 = ORIENTED_EDGE ( 'NONE', *, *, #246, .T. ) ;
#20 = AXIS2_PLACEMENT_3D ( 'NONE', #283, #30, #71 ) ;
#21 = PERSON_AND_ORGANIZATION ( #249, #172 ) ;
#22 = ORIENTED_EDGE ( 'NONE', *, *, #158, .T. ) ;
#23 = CARTESIAN_POINT ( 'NONE',  ( 0.000000000000000000, 0.000000000000000000, 0.000000000000000000 ) ) ;
#24 = DIRECTION ( 'NONE',  ( -0.000000000000000000, -0.000000000000000000, -1.000000000000000000 ) ) ;
#25 = CIRCLE ( 'NONE', #13, 4.200000000000000178 ) ;
#26 = DIRECTION ( 'NONE',  ( 0.000000000000000000, -1.000000000000000000, 0.000000000000000000 ) ) ;
#27 = CARTESIAN_POINT ( 'NONE',  ( 4.200000000000000178, 0.000000000000000000, 5.199999999999996625 ) ) ;
#28 = FACE_OUTER_BOUND ( 'NONE', #253, .T. ) ;
#29 = SHAPE_DEFINITION_REPRESENTATION ( #50, #111 ) ;
#30 = DIRECTION ( 'NONE',  ( 0.000000000000000000, 0.000000000000000000, 1.000000000000000000 ) ) ;
#31 = APPROVAL_STATUS ( 'not_yet_approved' ) ;
#32 = AXIS2_PLACEMENT_3D ( 'NONE', #44, #121, #191 ) ;
#33 = DIRECTION ( 'NONE',  ( -0.000000000000000000, -0.000000000000000000, -1.000000000000000000 ) ) ;
#34 = ORIENTED_EDGE ( 'NONE', *, *, #108, .T. ) ;
#35 = TOROIDAL_SURFACE ( 'NONE', #275, 4.200000000000000178, 0.2000000000000000111 ) ;
#36 = ORIENTED_EDGE ( 'NONE', *, *, #112, .T. ) ;
#37 = DIRECTION ( 'NONE',  ( 0.000000000000000000, 0.000000000000000000, 1.000000000000000000 ) ) ;
#38 = AXIS2_PLACEMENT_3D ( 'NONE', #27, #26, #120 ) ;
#39 = CARTESIAN_POINT ( 'NONE',  ( 0.000000000000000000, 0.000000000000000000, 105.0000000000000142 ) ) ;
#40 = EDGE_LOOP ( 'NONE', ( #269, #182, #22, #82 ) ) ;
#41 = DIRECTION ( 'NONE',  ( 1.000000000000000000, 0.000000000000000000, 0.000000000000000000 ) ) ;
#42 = LOCAL_TIME ( 12, 4, 3.000000000000000000, #100 ) ;
#43 = APPROVAL_DATE_TIME ( #257, #160 ) ;
#44 = CARTESIAN_POINT ( 'NONE',  ( 0.000000000000000000, 0.000000000000000000, 5.000000000000000000 ) ) ;
#45 = ADVANCED_FACE ( 'NONE', ( #204 ), #176, .F. ) ;
#46 = PERSON_AND_ORGANIZATION_ROLE ( 'creator' ) ;
#47 = DIRECTION ( 'NONE',  ( 1.000000000000000000, 0.000000000000000000, -0.000000000000000000 ) ) ;
#48 = VECTOR ( 'NONE', #292, 1000.000000000000000 ) ;
#49 = DIRECTION ( 'NONE',  ( -0.000000000000000000, -0.000000000000000000, -1.000000000000000000 ) ) ;
#50 = PRODUCT_DEFINITION_SHAPE ( 'NONE', 'NONE',  #162 ) ;
#51 = CARTESIAN_POINT ( 'NONE',  ( 0.000000000000000000, 0.000000000000000000, 5.000000000000000000 ) ) ;
#52 = CARTESIAN_POINT ( 'NONE',  ( 4.000000000000000000, 4.898587196589412829E-16, 5.199999999999996625 ) ) ;
#53 = APPROVAL_DATE_TIME ( #55, #259 ) ;
#54 = CLOSED_SHELL ( 'NONE', ( #97, #271, #224, #205, #181, #251, #236, #305, #45 ) ) ;
#55 = DATE_AND_TIME ( #174, #42 ) ;
#56 = APPLICATION_CONTEXT ( 'configuration controlled 3d designs of mechanical parts and assemblies' ) ;
#57 = ORIENTED_EDGE ( 'NONE', *, *, #61, .T. ) ;
#58 = AXIS2_PLACEMENT_3D ( 'NONE', #51, #261, #151 ) ;
#59 = ORIENTED_EDGE ( 'NONE', *, *, #139, .T. ) ;
#60 = CARTESIAN_POINT ( 'NONE',  ( 0.000000000000000000, 0.000000000000000000, 0.000000000000000000 ) ) ;
#61 = EDGE_CURVE ( 'NONE', #68, #114, #25, .T. ) ;
#62 = ORIENTED_EDGE ( 'NONE', *, *, #296, .F. ) ;
#63 = AXIS2_PLACEMENT_3D ( 'NONE', #148, #101, #125 ) ;
#64 = ORIENTED_EDGE ( 'NONE', *, *, #296, .T. ) ;
#65 = CARTESIAN_POINT ( 'NONE',  ( 0.000000000000000000, 0.000000000000000000, 5.199999999999996625 ) ) ;
#66 = CC_DESIGN_DATE_AND_TIME_ASSIGNMENT ( #177, #92, ( #16 ) ) ;
#67 = CALENDAR_DATE ( 2022, 7, 7 ) ;
#68 = VERTEX_POINT ( 'NONE', #230 ) ;
#69 = AXIS2_PLACEMENT_3D ( 'NONE', #23, #254, #7 ) ;
#70 = DIRECTION ( 'NONE',  ( 0.000000000000000000, 0.000000000000000000, 1.000000000000000000 ) ) ;
#71 = DIRECTION ( 'NONE',  ( 1.000000000000000000, 0.000000000000000000, 0.000000000000000000 ) ) ;
#72 = CARTESIAN_POINT ( 'NONE',  ( 7.000000000000000000, 8.572527594031473190E-16, 5.000000000000000000 ) ) ;
#73 = APPROVAL_PERSON_ORGANIZATION ( #90, #242, #140 ) ;
#74 = DIRECTION ( 'NONE',  ( -1.000000000000000000, 0.000000000000000000, 0.000000000000000000 ) ) ;
#75 = DIRECTION ( 'NONE',  ( 1.224646799147353207E-16, 1.000000000000000000, -0.000000000000000000 ) ) ;
#76 = CALENDAR_DATE ( 2022, 7, 7 ) ;
#77 = EDGE_LOOP ( 'NONE', ( #226, #179, #244, #137 ) ) ;
#78 = PERSON_AND_ORGANIZATION ( #249, #172 ) ;
#79 = PRODUCT_RELATED_PRODUCT_CATEGORY ( 'detail', '', ( #149 ) ) ;
#80 = VERTEX_POINT ( 'NONE', #89 ) ;
#81 = VERTEX_POINT ( 'NONE', #184 ) ;
#82 = ORIENTED_EDGE ( 'NONE', *, *, #61, .F. ) ;
#83 = APPROVAL_PERSON_ORGANIZATION ( #233, #160, #280 ) ;
#84 = ORIENTED_EDGE ( 'NONE', *, *, #158, .F. ) ;
#85 = EDGE_CURVE ( 'NONE', #295, #132, #91, .T. ) ;
#86 = AXIS2_PLACEMENT_3D ( 'NONE', #17, #113, #285 ) ;
#87 = DIRECTION ( 'NONE',  ( 1.000000000000000000, 0.000000000000000000, 0.000000000000000000 ) ) ;
#88 = ORIENTED_EDGE ( 'NONE', *, *, #307, .F. ) ;
#89 = CARTESIAN_POINT ( 'NONE',  ( -7.000000000000000000, 0.000000000000000000, 0.000000000000000000 ) ) ;
#90 = PERSON_AND_ORGANIZATION ( #249, #172 ) ;
#91 = LINE ( 'NONE', #187, #185 ) ;
#92 = DATE_TIME_ROLE ( 'classification_date' ) ;
#93 = CARTESIAN_POINT ( 'NONE',  ( 0.000000000000000000, 0.000000000000000000, 0.000000000000000000 ) ) ;
#94 = AXIS2_PLACEMENT_3D ( 'NONE', #212, #194, #288 ) ;
#95 = CIRCLE ( 'NONE', #129, 4.200000000000000178 ) ;
#96 = CARTESIAN_POINT ( 'NONE',  ( 0.000000000000000000, 0.000000000000000000, 105.0000000000000142 ) ) ;
#97 = ADVANCED_FACE ( 'NONE', ( #167 ), #35, .F. ) ;
#98 = DIRECTION ( 'NONE',  ( -1.000000000000000000, 1.224646799147353454E-16, 0.000000000000000000 ) ) ;
#99 = DIRECTION ( 'NONE',  ( -1.000000000000000000, 0.000000000000000000, 0.000000000000000000 ) ) ;
#100 = COORDINATED_UNIVERSAL_TIME_OFFSET ( 1, 0, .AHEAD. ) ;
#101 = DIRECTION ( 'NONE',  ( 0.000000000000000000, 0.000000000000000000, 1.000000000000000000 ) ) ;
#102 = PERSON_AND_ORGANIZATION_ROLE ( 'design_owner' ) ;
#103 =( NAMED_UNIT ( * ) PLANE_ANGLE_UNIT ( ) SI_UNIT ( $, .RADIAN. ) );
#104 = ORIENTED_EDGE ( 'NONE', *, *, #122, .T. ) ;
#105 = CC_DESIGN_PERSON_AND_ORGANIZATION_ASSIGNMENT ( #154, #46, ( #162 ) ) ;
#106 = AXIS2_PLACEMENT_3D ( 'NONE', #93, #189, #284 ) ;
#107 = ORIENTED_EDGE ( 'NONE', *, *, #178, .F. ) ;
#108 = EDGE_CURVE ( 'NONE', #81, #80, #110, .T. ) ;
#109 = VERTEX_POINT ( 'NONE', #274 ) ;
#110 = LINE ( 'NONE', #199, #48 ) ;
#111 = ADVANCED_BREP_SHAPE_REPRESENTATION ( '1f3a', ( #145, #69 ), #164 ) ;
#112 = EDGE_CURVE ( 'NONE', #80, #248, #208, .T. ) ;
#113 = DIRECTION ( 'NONE',  ( 0.000000000000000000, 0.000000000000000000, 1.000000000000000000 ) ) ;
#114 = VERTEX_POINT ( 'NONE', #225 ) ;
#115 = ORIENTED_EDGE ( 'NONE', *, *, #272, .T. ) ;
#116 = LOCAL_TIME ( 12, 4, 3.000000000000000000, #231 ) ;
#117 = PERSON_AND_ORGANIZATION ( #249, #172 ) ;
#118 = DIRECTION ( 'NONE',  ( 1.000000000000000000, 0.000000000000000000, 0.000000000000000000 ) ) ;
#119 = AXIS2_PLACEMENT_3D ( 'NONE', #39, #37, #227 ) ;
#120 = DIRECTION ( 'NONE',  ( 0.000000000000000000, 0.000000000000000000, -1.000000000000000000 ) ) ;
#121 = DIRECTION ( 'NONE',  ( -0.000000000000000000, -0.000000000000000000, -1.000000000000000000 ) ) ;
#122 = EDGE_CURVE ( 'NONE', #133, #81, #8, .T. ) ;
#123 = CC_DESIGN_APPROVAL ( #160, ( #16 ) ) ;
#124 = PLANE ( 'NONE',  #128 ) ;
#125 = DIRECTION ( 'NONE',  ( 1.000000000000000000, 0.000000000000000000, 0.000000000000000000 ) ) ;
#126 = FACE_OUTER_BOUND ( 'NONE', #141, .T. ) ;
#127 = COORDINATED_UNIVERSAL_TIME_OFFSET ( 1, 0, .AHEAD. ) ;
#128 = AXIS2_PLACEMENT_3D ( 'NONE', #232, #70, #234 ) ;
#129 = AXIS2_PLACEMENT_3D ( 'NONE', #265, #49, #190 ) ;
#130 = DIRECTION ( 'NONE',  ( 1.000000000000000000, 0.000000000000000000, -0.000000000000000000 ) ) ;
#131 = DATE_AND_TIME ( #241, #142 ) ;
#132 = VERTEX_POINT ( 'NONE', #52 ) ;
#133 = VERTEX_POINT ( 'NONE', #72 ) ;
#134 = EDGE_LOOP ( 'NONE', ( #293, #59, #183, #84 ) ) ;
#135 = DIRECTION ( 'NONE',  ( 0.000000000000000000, 0.000000000000000000, 1.000000000000000000 ) ) ;
#136 = CIRCLE ( 'NONE', #63, 4.000000000000000000 ) ;
#137 = ORIENTED_EDGE ( 'NONE', *, *, #108, .F. ) ;
#138 = CARTESIAN_POINT ( 'NONE',  ( 0.000000000000000000, 0.000000000000000000, 5.199999999999996625 ) ) ;
#139 = EDGE_CURVE ( 'NONE', #11, #68, #202, .T. ) ;
#140 = APPROVAL_ROLE ( '' ) ;
#141 = EDGE_LOOP ( 'NONE', ( #64, #10 ) ) ;
#142 = LOCAL_TIME ( 12, 4, 3.000000000000000000, #146 ) ;
#143 = PERSON_AND_ORGANIZATION_ROLE ( 'creator' ) ;
#144 = DIRECTION ( 'NONE',  ( -0.000000000000000000, -0.000000000000000000, -1.000000000000000000 ) ) ;
#145 = MANIFOLD_SOLID_BREP ( 'Zaoblit1', #54 ) ;
#146 = COORDINATED_UNIVERSAL_TIME_OFFSET ( 1, 0, .AHEAD. ) ;
#147 = AXIS2_PLACEMENT_3D ( 'NONE', #60, #161, #250 ) ;
#148 = CARTESIAN_POINT ( 'NONE',  ( 0.000000000000000000, 0.000000000000000000, 5.199999999999996625 ) ) ;
#149 = PRODUCT ( '1f3a', '1f3a', '', ( #157 ) ) ;
#150 = DIRECTION ( 'NONE',  ( 0.000000000000000000, 0.000000000000000000, 1.000000000000000000 ) ) ;
#151 = DIRECTION ( 'NONE',  ( 1.000000000000000000, 0.000000000000000000, 0.000000000000000000 ) ) ;
#152 = CARTESIAN_POINT ( 'NONE',  ( -4.000000000000000000, 0.000000000000000000, 105.0000000000000142 ) ) ;
#153 = CIRCLE ( 'NONE', #279, 4.000000000000000000 ) ;
#154 = PERSON_AND_ORGANIZATION ( #249, #172 ) ;
#155 = LINE ( 'NONE', #267, #4 ) ;
#156 = CIRCLE ( 'NONE', #38, 0.1999999999999996503 ) ;
#157 = MECHANICAL_CONTEXT ( 'NONE', #56, 'mechanical' ) ;
#158 = EDGE_CURVE ( 'NONE', #132, #114, #156, .T. ) ;
#159 = CC_DESIGN_APPROVAL ( #259, ( #162 ) ) ;
#160 = APPROVAL ( #186, 'NEURÈENÝ' ) ;
#161 = DIRECTION ( 'NONE',  ( 0.000000000000000000, 0.000000000000000000, 1.000000000000000000 ) ) ;
#162 = PRODUCT_DEFINITION ( 'NEZNÁMÝ', '', #297, #239 ) ;
#163 = DIRECTION ( 'NONE',  ( -0.000000000000000000, -0.000000000000000000, -1.000000000000000000 ) ) ;
#164 =( GEOMETRIC_REPRESENTATION_CONTEXT ( 3 ) GLOBAL_UNCERTAINTY_ASSIGNED_CONTEXT ( ( #268 ) ) GLOBAL_UNIT_ASSIGNED_CONTEXT ( ( #282, #103, #188 ) ) REPRESENTATION_CONTEXT ( 'NONE', 'WORKASPACE' ) );
#165 = ORIENTED_EDGE ( 'NONE', *, *, #12, .F. ) ;
#166 = APPROVAL_ROLE ( '' ) ;
#167 = FACE_OUTER_BOUND ( 'NONE', #134, .T. ) ;
#168 = LOCAL_TIME ( 12, 4, 3.000000000000000000, #299 ) ;
#169 = DIRECTION ( 'NONE',  ( -0.000000000000000000, -0.000000000000000000, -1.000000000000000000 ) ) ;
#170 = PLANE ( 'NONE',  #291 ) ;
#171 = LINE ( 'NONE', #152, #256 ) ;
#172 = ORGANIZATION ( 'NEURÈENÝ', 'NEURÈENÝ', '' ) ;
#173 = CARTESIAN_POINT ( 'NONE',  ( 0.000000000000000000, 0.000000000000000000, 105.0000000000000142 ) ) ;
#174 = CALENDAR_DATE ( 2022, 7, 7 ) ;
#175 = FACE_OUTER_BOUND ( 'NONE', #252, .T. ) ;
#176 = TOROIDAL_SURFACE ( 'NONE', #218, 4.200000000000000178, 0.2000000000000000111 ) ;
#177 = DATE_AND_TIME ( #76, #168 ) ;
#178 = EDGE_CURVE ( 'NONE', #109, #11, #171, .T. ) ;
#179 = ORIENTED_EDGE ( 'NONE', *, *, #307, .T. ) ;
#180 = ORIENTED_EDGE ( 'NONE', *, *, #112, .F. ) ;
#181 = ADVANCED_FACE ( 'NONE', ( #235, #28 ), #124, .T. ) ;
#182 = ORIENTED_EDGE ( 'NONE', *, *, #9, .F. ) ;
#183 = ORIENTED_EDGE ( 'NONE', *, *, #272, .F. ) ;
#184 = CARTESIAN_POINT ( 'NONE',  ( -7.000000000000000000, 0.000000000000000000, 5.000000000000000000 ) ) ;
#185 = VECTOR ( 'NONE', #281, 1000.000000000000000 ) ;
#186 = APPROVAL_STATUS ( 'not_yet_approved' ) ;
#187 = CARTESIAN_POINT ( 'NONE',  ( 4.000000000000000000, 4.898587196589412829E-16, 105.0000000000000142 ) ) ;
#188 =( NAMED_UNIT ( * ) SI_UNIT ( $, .STERADIAN. ) SOLID_ANGLE_UNIT ( ) );
#189 = DIRECTION ( 'NONE',  ( 0.000000000000000000, 0.000000000000000000, 1.000000000000000000 ) ) ;
#190 = DIRECTION ( 'NONE',  ( 1.000000000000000000, 0.000000000000000000, 0.000000000000000000 ) ) ;
#191 = DIRECTION ( 'NONE',  ( -1.000000000000000000, 0.000000000000000000, 0.000000000000000000 ) ) ;
#192 = FACE_OUTER_BOUND ( 'NONE', #77, .T. ) ;
#193 = AXIS2_PLACEMENT_3D ( 'NONE', #96, #144, #74 ) ;
#194 = DIRECTION ( 'NONE',  ( -0.000000000000000000, -0.000000000000000000, -1.000000000000000000 ) ) ;
#195 = SECURITY_CLASSIFICATION_LEVEL ( 'unclassified' ) ;
#196 = APPLICATION_PROTOCOL_DEFINITION ( 'international standard', 'config_control_design', 1994, #273 ) ;
#197 = CC_DESIGN_PERSON_AND_ORGANIZATION_ASSIGNMENT ( #117, #206, ( #16 ) ) ;
#198 = APPROVAL_PERSON_ORGANIZATION ( #2, #259, #166 ) ;
#199 = CARTESIAN_POINT ( 'NONE',  ( -7.000000000000000000, 0.000000000000000000, 5.000000000000000000 ) ) ;
#200 = CC_DESIGN_PERSON_AND_ORGANIZATION_ASSIGNMENT ( #21, #143, ( #297 ) ) ;
#201 = CARTESIAN_POINT ( 'NONE',  ( 0.000000000000000000, 0.000000000000000000, 5.199999999999996625 ) ) ;
#202 = CIRCLE ( 'NONE', #223, 0.1999999999999996503 ) ;
#203 = DIRECTION ( 'NONE',  ( 0.000000000000000000, 0.000000000000000000, 1.000000000000000000 ) ) ;
#204 = FACE_OUTER_BOUND ( 'NONE', #40, .T. ) ;
#205 = ADVANCED_FACE ( 'NONE', ( #304 ), #214, .T. ) ;
#206 = PERSON_AND_ORGANIZATION_ROLE ( 'classification_officer' ) ;
#207 = ORIENTED_EDGE ( 'NONE', *, *, #263, .T. ) ;
#208 = CIRCLE ( 'NONE', #147, 7.000000000000000000 ) ;
#209 = APPROVAL_STATUS ( 'not_yet_approved' ) ;
#210 = CYLINDRICAL_SURFACE ( 'NONE', #94, 7.000000000000000000 ) ;
#211 = FACE_OUTER_BOUND ( 'NONE', #18, .T. ) ;
#212 = CARTESIAN_POINT ( 'NONE',  ( 0.000000000000000000, 0.000000000000000000, 5.000000000000000000 ) ) ;
#213 = FACE_OUTER_BOUND ( 'NONE', #289, .T. ) ;
#214 = CYLINDRICAL_SURFACE ( 'NONE', #32, 7.000000000000000000 ) ;
#215 = DATE_AND_TIME ( #217, #216 ) ;
#216 = LOCAL_TIME ( 12, 4, 3.000000000000000000, #127 ) ;
#217 = CALENDAR_DATE ( 2022, 7, 7 ) ;
#218 = AXIS2_PLACEMENT_3D ( 'NONE', #65, #255, #41 ) ;
#219 = ORIENTED_EDGE ( 'NONE', *, *, #85, .T. ) ;
#220 = CIRCLE ( 'NONE', #58, 7.000000000000000000 ) ;
#221 = EDGE_LOOP ( 'NONE', ( #88, #277, #34, #36 ) ) ;
#222 = EDGE_LOOP ( 'NONE', ( #115, #57 ) ) ;
#223 = AXIS2_PLACEMENT_3D ( 'NONE', #3, #75, #98 ) ;
#224 = ADVANCED_FACE ( 'NONE', ( #192 ), #210, .T. ) ;
#225 = CARTESIAN_POINT ( 'NONE',  ( 4.200000000000000178, 0.000000000000000000, 4.999999999999998224 ) ) ;
#226 = ORIENTED_EDGE ( 'NONE', *, *, #122, .F. ) ;
#227 = DIRECTION ( 'NONE',  ( 1.000000000000000000, 0.000000000000000000, 0.000000000000000000 ) ) ;
#228 = CC_DESIGN_PERSON_AND_ORGANIZATION_ASSIGNMENT ( #78, #102, ( #149 ) ) ;
#229 = APPROVAL_DATE_TIME ( #215, #242 ) ;
#230 = CARTESIAN_POINT ( 'NONE',  ( -4.200000000000000178, 5.143516556418882928E-16, 4.999999999999998224 ) ) ;
#231 = COORDINATED_UNIVERSAL_TIME_OFFSET ( 1, 0, .AHEAD. ) ;
#232 = CARTESIAN_POINT ( 'NONE',  ( 0.000000000000000000, 0.000000000000000000, 5.000000000000000000 ) ) ;
#233 = PERSON_AND_ORGANIZATION ( #249, #172 ) ;
#234 = DIRECTION ( 'NONE',  ( 1.000000000000000000, 0.000000000000000000, -0.000000000000000000 ) ) ;
#235 = FACE_BOUND ( 'NONE', #222, .T. ) ;
#236 = ADVANCED_FACE ( 'NONE', ( #175 ), #264, .T. ) ;
#237 = AXIS2_PLACEMENT_3D ( 'NONE', #238, #302, #47 ) ;
#238 = CARTESIAN_POINT ( 'NONE',  ( 0.000000000000000000, 0.000000000000000000, 0.000000000000000000 ) ) ;
#239 = DESIGN_CONTEXT ( 'detailed design', #273, 'design' ) ;
#240 = CARTESIAN_POINT ( 'NONE',  ( 4.000000000000000000, 4.898587196589412829E-16, 105.0000000000000142 ) ) ;
#241 = CALENDAR_DATE ( 2022, 7, 7 ) ;
#242 = APPROVAL ( #31, 'NEURÈENÝ' ) ;
#243 = AXIS2_PLACEMENT_3D ( 'NONE', #173, #24, #99 ) ;
#244 = ORIENTED_EDGE ( 'NONE', *, *, #286, .T. ) ;
#245 = CC_DESIGN_PERSON_AND_ORGANIZATION_ASSIGNMENT ( #5, #301, ( #297 ) ) ;
#246 = EDGE_CURVE ( 'NONE', #81, #133, #220, .T. ) ;
#247 = CC_DESIGN_SECURITY_CLASSIFICATION ( #16, ( #297 ) ) ;
#248 = VERTEX_POINT ( 'NONE', #287 ) ;
#249 = PERSON ( 'NEURÈENÝ', 'NEURÈENÝ', 'NEURÈENÝ', ('NEURÈENÝ'), ('NEURÈENÝ'), ('NEURÈENÝ') ) ;
#250 = DIRECTION ( 'NONE',  ( 1.000000000000000000, 0.000000000000000000, 0.000000000000000000 ) ) ;
#251 = ADVANCED_FACE ( 'NONE', ( #211 ), #306, .F. ) ;
#252 = EDGE_LOOP ( 'NONE', ( #278, #62, #258, #207 ) ) ;
#253 = EDGE_LOOP ( 'NONE', ( #19, #104 ) ) ;
#254 = DIRECTION ( 'NONE',  ( 0.000000000000000000, 0.000000000000000000, 1.000000000000000000 ) ) ;
#255 = DIRECTION ( 'NONE',  ( 0.000000000000000000, 0.000000000000000000, 1.000000000000000000 ) ) ;
#256 = VECTOR ( 'NONE', #169, 1000.000000000000000 ) ;
#257 = DATE_AND_TIME ( #67, #116 ) ;
#258 = ORIENTED_EDGE ( 'NONE', *, *, #178, .T. ) ;
#259 = APPROVAL ( #209, 'NEURÈENÝ' ) ;
#260 = APPLICATION_PROTOCOL_DEFINITION ( 'international standard', 'config_control_design', 1994, #56 ) ;
#261 = DIRECTION ( 'NONE',  ( 0.000000000000000000, 0.000000000000000000, 1.000000000000000000 ) ) ;
#262 = CARTESIAN_POINT ( 'NONE',  ( 0.000000000000000000, 0.000000000000000000, 105.0000000000000142 ) ) ;
#263 = EDGE_CURVE ( 'NONE', #11, #132, #136, .T. ) ;
#264 = CYLINDRICAL_SURFACE ( 'NONE', #243, 4.000000000000000000 ) ;
#265 = CARTESIAN_POINT ( 'NONE',  ( 0.000000000000000000, 0.000000000000000000, 5.000000000000000000 ) ) ;
#266 = CIRCLE ( 'NONE', #119, 4.000000000000000000 ) ;
#267 = CARTESIAN_POINT ( 'NONE',  ( 7.000000000000000000, 8.572527594031473190E-16, 5.000000000000000000 ) ) ;
#268 = UNCERTAINTY_MEASURE_WITH_UNIT (LENGTH_MEASURE( 1.000000000000000082E-05 ), #282, 'distance_accuracy_value', 'NONE');
#269 = ORIENTED_EDGE ( 'NONE', *, *, #139, .F. ) ;
#270 = CIRCLE ( 'NONE', #106, 7.000000000000000000 ) ;
#271 = ADVANCED_FACE ( 'NONE', ( #213 ), #1, .T. ) ;
#272 = EDGE_CURVE ( 'NONE', #114, #68, #95, .T. ) ;
#273 = APPLICATION_CONTEXT ( 'configuration controlled 3d designs of mechanical parts and assemblies' ) ;
#274 = CARTESIAN_POINT ( 'NONE',  ( -4.000000000000000000, 0.000000000000000000, 105.0000000000000142 ) ) ;
#275 = AXIS2_PLACEMENT_3D ( 'NONE', #201, #135, #15 ) ;
#276 = CIRCLE ( 'NONE', #20, 4.000000000000000000 ) ;
#277 = ORIENTED_EDGE ( 'NONE', *, *, #246, .F. ) ;
#278 = ORIENTED_EDGE ( 'NONE', *, *, #85, .F. ) ;
#279 = AXIS2_PLACEMENT_3D ( 'NONE', #138, #203, #87 ) ;
#280 = APPROVAL_ROLE ( '' ) ;
#281 = DIRECTION ( 'NONE',  ( -0.000000000000000000, -0.000000000000000000, -1.000000000000000000 ) ) ;
#282 =( LENGTH_UNIT ( ) NAMED_UNIT ( * ) SI_UNIT ( .MILLI., .METRE. ) );
#283 = CARTESIAN_POINT ( 'NONE',  ( 0.000000000000000000, 0.000000000000000000, 105.0000000000000142 ) ) ;
#284 = DIRECTION ( 'NONE',  ( 1.000000000000000000, 0.000000000000000000, 0.000000000000000000 ) ) ;
#285 = DIRECTION ( 'NONE',  ( 1.000000000000000000, 0.000000000000000000, 0.000000000000000000 ) ) ;
#286 = EDGE_CURVE ( 'NONE', #248, #80, #270, .T. ) ;
#287 = CARTESIAN_POINT ( 'NONE',  ( 7.000000000000000000, 8.572527594031473190E-16, 0.000000000000000000 ) ) ;
#288 = DIRECTION ( 'NONE',  ( -1.000000000000000000, 0.000000000000000000, 0.000000000000000000 ) ) ;
#289 = EDGE_LOOP ( 'NONE', ( #165, #219, #14, #107 ) ) ;
#290 = DATE_TIME_ROLE ( 'creation_date' ) ;
#291 = AXIS2_PLACEMENT_3D ( 'NONE', #262, #150, #130 ) ;
#292 = DIRECTION ( 'NONE',  ( -0.000000000000000000, -0.000000000000000000, -1.000000000000000000 ) ) ;
#293 = ORIENTED_EDGE ( 'NONE', *, *, #263, .F. ) ;
#294 = CC_DESIGN_DATE_AND_TIME_ASSIGNMENT ( #131, #290, ( #162 ) ) ;
#295 = VERTEX_POINT ( 'NONE', #240 ) ;
#296 = EDGE_CURVE ( 'NONE', #109, #295, #276, .T. ) ;
#297 = PRODUCT_DEFINITION_FORMATION_WITH_SPECIFIED_SOURCE ( 'LIBOVOLNÝ', '', #149, .NOT_KNOWN. ) ;
#298 = CARTESIAN_POINT ( 'NONE',  ( 0.000000000000000000, 0.000000000000000000, 5.000000000000000000 ) ) ;
#299 = COORDINATED_UNIVERSAL_TIME_OFFSET ( 1, 0, .AHEAD. ) ;
#300 = CARTESIAN_POINT ( 'NONE',  ( -4.000000000000000000, 0.000000000000000000, 5.199999999999996625 ) ) ;
#301 = PERSON_AND_ORGANIZATION_ROLE ( 'design_supplier' ) ;
#302 = DIRECTION ( 'NONE',  ( 0.000000000000000000, 0.000000000000000000, 1.000000000000000000 ) ) ;
#303 = CC_DESIGN_APPROVAL ( #242, ( #297 ) ) ;
#304 = FACE_OUTER_BOUND ( 'NONE', #221, .T. ) ;
#305 = ADVANCED_FACE ( 'NONE', ( #126 ), #170, .T. ) ;
#306 = PLANE ( 'NONE',  #237 ) ;
#307 = EDGE_CURVE ( 'NONE', #133, #248, #155, .T. ) ;
ENDSEC;
END-ISO-10303-21;
