ISO-10303-21;
HEADER;
FILE_DESCRIPTION (( 'STEP AP203' ),
    '1' );
FILE_NAME ('8aa1.STEP',
    '2022-07-07T10:20:01',
    ( '' ),
    ( '' ),
    'SwSTEP 2.0',
    'SolidWorks 2019',
    '' );
FILE_SCHEMA (( 'CONFIG_CONTROL_DESIGN' ));
ENDSEC;

DATA;
#1 = DIRECTION ( 'NONE',  ( 1.000000000000000000, 0.000000000000000000, 0.000000000000000000 ) ) ;
#2 = ADVANCED_FACE ( 'NONE', ( #297 ), #299, .T. ) ;
#3 = DIRECTION ( 'NONE',  ( -1.000000000000000000, 0.000000000000000000, 0.000000000000000000 ) ) ;
#4 = PRODUCT_RELATED_PRODUCT_CATEGORY ( 'detail', '', ( #16 ) ) ;
#5 = ADVANCED_FACE ( 'NONE', ( #155 ), #39, .F. ) ;
#6 =( GEOMETRIC_REPRESENTATION_CONTEXT ( 3 ) GLOBAL_UNCERTAINTY_ASSIGNED_CONTEXT ( ( #100 ) ) GLOBAL_UNIT_ASSIGNED_CONTEXT ( ( #241, #219, #119 ) ) REPRESENTATION_CONTEXT ( 'NONE', 'WORKASPACE' ) );
#7 = CARTESIAN_POINT ( 'NONE',  ( -2.500000000000000000, 0.000000000000000000, 203.0000000000000000 ) ) ;
#8 = CIRCLE ( 'NONE', #51, 2.700000000000000178 ) ;
#9 = DIRECTION ( 'NONE',  ( -0.000000000000000000, -0.000000000000000000, -1.000000000000000000 ) ) ;
#10 = DIRECTION ( 'NONE',  ( 1.000000000000000000, 0.000000000000000000, 0.000000000000000000 ) ) ;
#11 = EDGE_CURVE ( 'NONE', #99, #133, #102, .T. ) ;
#12 = VERTEX_POINT ( 'NONE', #20 ) ;
#13 = DATE_AND_TIME ( #249, #123 ) ;
#14 = AXIS2_PLACEMENT_3D ( 'NONE', #79, #9, #173 ) ;
#15 = ORIENTED_EDGE ( 'NONE', *, *, #92, .T. ) ;
#16 = PRODUCT ( '8aa1', '8aa1', '', ( #265 ) ) ;
#17 = ORIENTED_EDGE ( 'NONE', *, *, #170, .T. ) ;
#18 = DIRECTION ( 'NONE',  ( 0.000000000000000000, 0.000000000000000000, -1.000000000000000000 ) ) ;
#19 = CC_DESIGN_PERSON_AND_ORGANIZATION_ASSIGNMENT ( #36, #298, ( #189 ) ) ;
#20 = CARTESIAN_POINT ( 'NONE',  ( 5.000000000000000000, 6.123233995736766282E-16, 3.000000000000000000 ) ) ;
#21 = LOCAL_TIME ( 12, 20, 1.000000000000000000, #104 ) ;
#22 = VERTEX_POINT ( 'NONE', #86 ) ;
#23 = DIRECTION ( 'NONE',  ( 0.000000000000000000, 0.000000000000000000, 1.000000000000000000 ) ) ;
#24 = DIRECTION ( 'NONE',  ( 1.000000000000000000, 0.000000000000000000, 0.000000000000000000 ) ) ;
#25 = EDGE_CURVE ( 'NONE', #230, #22, #8, .T. ) ;
#26 = CIRCLE ( 'NONE', #167, 5.000000000000000000 ) ;
#27 = CARTESIAN_POINT ( 'NONE',  ( 0.000000000000000000, 0.000000000000000000, 3.200000000000008171 ) ) ;
#28 = CC_DESIGN_PERSON_AND_ORGANIZATION_ASSIGNMENT ( #171, #268, ( #242 ) ) ;
#29 = APPROVAL_DATE_TIME ( #146, #77 ) ;
#30 = EDGE_CURVE ( 'NONE', #233, #230, #169, .T. ) ;
#31 = AXIS2_PLACEMENT_3D ( 'NONE', #175, #294, #76 ) ;
#32 = ORIENTED_EDGE ( 'NONE', *, *, #153, .F. ) ;
#33 = APPROVAL_PERSON_ORGANIZATION ( #142, #125, #38 ) ;
#34 = AXIS2_PLACEMENT_3D ( 'NONE', #135, #157, #1 ) ;
#35 = PLANE ( 'NONE',  #206 ) ;
#36 = PERSON_AND_ORGANIZATION ( #284, #83 ) ;
#37 = DIRECTION ( 'NONE',  ( 1.000000000000000000, 0.000000000000000000, 0.000000000000000000 ) ) ;
#38 = APPROVAL_ROLE ( '' ) ;
#39 = PLANE ( 'NONE',  #121 ) ;
#40 = ORIENTED_EDGE ( 'NONE', *, *, #172, .T. ) ;
#41 = EDGE_LOOP ( 'NONE', ( #15, #198 ) ) ;
#42 = CARTESIAN_POINT ( 'NONE',  ( -2.500000000000000000, 0.000000000000000000, 203.0000000000000000 ) ) ;
#43 = DIRECTION ( 'NONE',  ( -0.000000000000000000, -0.000000000000000000, -1.000000000000000000 ) ) ;
#44 = ORIENTED_EDGE ( 'NONE', *, *, #139, .T. ) ;
#45 = DIRECTION ( 'NONE',  ( 1.000000000000000000, 0.000000000000000000, 0.000000000000000000 ) ) ;
#46 = DIRECTION ( 'NONE',  ( 1.224646799147353207E-16, 1.000000000000000000, -0.000000000000000000 ) ) ;
#47 = DATE_TIME_ROLE ( 'creation_date' ) ;
#48 = APPROVAL_PERSON_ORGANIZATION ( #273, #248, #176 ) ;
#49 = DIRECTION ( 'NONE',  ( 1.000000000000000000, 0.000000000000000000, 0.000000000000000000 ) ) ;
#50 = CC_DESIGN_PERSON_AND_ORGANIZATION_ASSIGNMENT ( #183, #131, ( #147 ) ) ;
#51 = AXIS2_PLACEMENT_3D ( 'NONE', #239, #114, #24 ) ;
#52 = CALENDAR_DATE ( 2022, 7, 7 ) ;
#53 = MANIFOLD_SOLID_BREP ( 'Zaoblit1', #65 ) ;
#54 = ADVANCED_BREP_SHAPE_REPRESENTATION ( '8aa1', ( #53, #261 ), #6 ) ;
#55 = FACE_OUTER_BOUND ( 'NONE', #285, .T. ) ;
#56 = CIRCLE ( 'NONE', #199, 5.000000000000000000 ) ;
#57 = FACE_OUTER_BOUND ( 'NONE', #276, .T. ) ;
#58 = EDGE_CURVE ( 'NONE', #233, #66, #90, .T. ) ;
#59 = PERSON_AND_ORGANIZATION_ROLE ( 'design_supplier' ) ;
#60 = DIRECTION ( 'NONE',  ( -0.000000000000000000, -0.000000000000000000, -1.000000000000000000 ) ) ;
#61 = DATE_AND_TIME ( #232, #202 ) ;
#62 = ORIENTED_EDGE ( 'NONE', *, *, #11, .F. ) ;
#63 = CARTESIAN_POINT ( 'NONE',  ( 0.000000000000000000, 0.000000000000000000, 0.000000000000000000 ) ) ;
#64 = DIRECTION ( 'NONE',  ( -1.000000000000000000, 0.000000000000000000, 0.000000000000000000 ) ) ;
#65 = CLOSED_SHELL ( 'NONE', ( #225, #203, #269, #103, #197, #5, #2, #220, #274 ) ) ;
#66 = VERTEX_POINT ( 'NONE', #182 ) ;
#67 = CIRCLE ( 'NONE', #174, 5.000000000000000000 ) ;
#68 = LINE ( 'NONE', #161, #150 ) ;
#69 = DIRECTION ( 'NONE',  ( 1.000000000000000000, 0.000000000000000000, 0.000000000000000000 ) ) ;
#70 = ORIENTED_EDGE ( 'NONE', *, *, #190, .F. ) ;
#71 = COORDINATED_UNIVERSAL_TIME_OFFSET ( 1, 0, .AHEAD. ) ;
#72 = DIRECTION ( 'NONE',  ( 1.000000000000000000, 0.000000000000000000, 0.000000000000000000 ) ) ;
#73 = APPROVAL_STATUS ( 'not_yet_approved' ) ;
#74 = AXIS2_PLACEMENT_3D ( 'NONE', #162, #43, #117 ) ;
#75 = APPLICATION_PROTOCOL_DEFINITION ( 'international standard', 'config_control_design', 1994, #218 ) ;
#76 = DIRECTION ( 'NONE',  ( 1.000000000000000000, 0.000000000000000000, 0.000000000000000000 ) ) ;
#77 = APPROVAL ( #73, 'NEURÈENÝ' ) ;
#78 = AXIS2_PLACEMENT_3D ( 'NONE', #93, #286, #3 ) ;
#79 = CARTESIAN_POINT ( 'NONE',  ( 0.000000000000000000, 0.000000000000000000, 203.0000000000000000 ) ) ;
#80 = COORDINATED_UNIVERSAL_TIME_OFFSET ( 1, 0, .AHEAD. ) ;
#81 = ORIENTED_EDGE ( 'NONE', *, *, #195, .T. ) ;
#82 = SHAPE_DEFINITION_REPRESENTATION ( #107, #54 ) ;
#83 = ORGANIZATION ( 'NEURÈENÝ', 'NEURÈENÝ', '' ) ;
#84 = ORIENTED_EDGE ( 'NONE', *, *, #251, .T. ) ;
#85 = FACE_BOUND ( 'NONE', #41, .T. ) ;
#86 = CARTESIAN_POINT ( 'NONE',  ( 2.700000000000000178, 0.000000000000000000, 3.000000000000004441 ) ) ;
#87 = ORIENTED_EDGE ( 'NONE', *, *, #263, .T. ) ;
#88 = DIRECTION ( 'NONE',  ( 0.000000000000000000, 0.000000000000000000, 1.000000000000000000 ) ) ;
#89 = CARTESIAN_POINT ( 'NONE',  ( 0.000000000000000000, 0.000000000000000000, 0.000000000000000000 ) ) ;
#90 = CIRCLE ( 'NONE', #266, 2.500000000000000000 ) ;
#91 = EDGE_LOOP ( 'NONE', ( #211, #81 ) ) ;
#92 = EDGE_CURVE ( 'NONE', #22, #230, #217, .T. ) ;
#93 = CARTESIAN_POINT ( 'NONE',  ( 0.000000000000000000, 0.000000000000000000, 3.000000000000000000 ) ) ;
#94 = CC_DESIGN_APPROVAL ( #77, ( #242 ) ) ;
#95 = CARTESIAN_POINT ( 'NONE',  ( -5.000000000000000000, 0.000000000000000000, 3.000000000000000000 ) ) ;
#96 = AXIS2_PLACEMENT_3D ( 'NONE', #282, #113, #277 ) ;
#97 = CYLINDRICAL_SURFACE ( 'NONE', #78, 5.000000000000000000 ) ;
#98 = ORIENTED_EDGE ( 'NONE', *, *, #11, .T. ) ;
#99 = VERTEX_POINT ( 'NONE', #209 ) ;
#100 = UNCERTAINTY_MEASURE_WITH_UNIT (LENGTH_MEASURE( 1.000000000000000082E-05 ), #241, 'distance_accuracy_value', 'NONE');
#101 = LINE ( 'NONE', #95, #302 ) ;
#102 = CIRCLE ( 'NONE', #281, 5.000000000000000000 ) ;
#103 = ADVANCED_FACE ( 'NONE', ( #301 ), #136, .T. ) ;
#104 = COORDINATED_UNIVERSAL_TIME_OFFSET ( 1, 0, .AHEAD. ) ;
#105 = ORIENTED_EDGE ( 'NONE', *, *, #306, .T. ) ;
#106 = COORDINATED_UNIVERSAL_TIME_OFFSET ( 1, 0, .AHEAD. ) ;
#107 = PRODUCT_DEFINITION_SHAPE ( 'NONE', 'NONE',  #242 ) ;
#108 = ORIENTED_EDGE ( 'NONE', *, *, #184, .T. ) ;
#109 = DIRECTION ( 'NONE',  ( -1.000000000000000000, 1.224646799147353207E-16, 0.000000000000000000 ) ) ;
#110 = PERSON_AND_ORGANIZATION ( #284, #83 ) ;
#111 = ORIENTED_EDGE ( 'NONE', *, *, #30, .T. ) ;
#112 = LOCAL_TIME ( 12, 20, 1.000000000000000000, #71 ) ;
#113 = DIRECTION ( 'NONE',  ( 0.000000000000000000, 0.000000000000000000, 1.000000000000000000 ) ) ;
#114 = DIRECTION ( 'NONE',  ( -0.000000000000000000, -0.000000000000000000, -1.000000000000000000 ) ) ;
#115 = ORIENTED_EDGE ( 'NONE', *, *, #139, .F. ) ;
#116 = CARTESIAN_POINT ( 'NONE',  ( 2.700000000000000178, 0.000000000000000000, 3.200000000000008171 ) ) ;
#117 = DIRECTION ( 'NONE',  ( 1.000000000000000000, 0.000000000000000000, 0.000000000000000000 ) ) ;
#118 = CC_DESIGN_DATE_AND_TIME_ASSIGNMENT ( #279, #210, ( #189 ) ) ;
#119 =( NAMED_UNIT ( * ) SI_UNIT ( $, .STERADIAN. ) SOLID_ANGLE_UNIT ( ) );
#120 = CIRCLE ( 'NONE', #34, 2.500000000000000000 ) ;
#121 = AXIS2_PLACEMENT_3D ( 'NONE', #231, #305, #213 ) ;
#122 = DIRECTION ( 'NONE',  ( 0.000000000000000000, 0.000000000000000000, 1.000000000000000000 ) ) ;
#123 = LOCAL_TIME ( 12, 20, 1.000000000000000000, #80 ) ;
#124 = AXIS2_PLACEMENT_3D ( 'NONE', #158, #278, #64 ) ;
#125 = APPROVAL ( #253, 'NEURÈENÝ' ) ;
#126 = CARTESIAN_POINT ( 'NONE',  ( 0.000000000000000000, 0.000000000000000000, 203.0000000000000000 ) ) ;
#127 = AXIS2_PLACEMENT_3D ( 'NONE', #275, #60, #132 ) ;
#128 = APPROVAL_DATE_TIME ( #61, #248 ) ;
#129 = CARTESIAN_POINT ( 'NONE',  ( 0.000000000000000000, 0.000000000000000000, 3.200000000000008171 ) ) ;
#130 = VERTEX_POINT ( 'NONE', #257 ) ;
#131 = PERSON_AND_ORGANIZATION_ROLE ( 'creator' ) ;
#132 = DIRECTION ( 'NONE',  ( -1.000000000000000000, 0.000000000000000000, 0.000000000000000000 ) ) ;
#133 = VERTEX_POINT ( 'NONE', #186 ) ;
#134 = EDGE_LOOP ( 'NONE', ( #303, #32, #237, #156 ) ) ;
#135 = CARTESIAN_POINT ( 'NONE',  ( 0.000000000000000000, 0.000000000000000000, 203.0000000000000000 ) ) ;
#136 = CYLINDRICAL_SURFACE ( 'NONE', #124, 5.000000000000000000 ) ;
#137 = ORIENTED_EDGE ( 'NONE', *, *, #184, .F. ) ;
#138 = PLANE ( 'NONE',  #240 ) ;
#139 = EDGE_CURVE ( 'NONE', #130, #254, #120, .T. ) ;
#140 = DIRECTION ( 'NONE',  ( 1.000000000000000000, 0.000000000000000000, 0.000000000000000000 ) ) ;
#141 = CIRCLE ( 'NONE', #96, 2.500000000000000000 ) ;
#142 = PERSON_AND_ORGANIZATION ( #284, #83 ) ;
#143 = LOCAL_TIME ( 12, 20, 1.000000000000000000, #267 ) ;
#144 = DIRECTION ( 'NONE',  ( 0.000000000000000000, 0.000000000000000000, 1.000000000000000000 ) ) ;
#145 = CARTESIAN_POINT ( 'NONE',  ( 0.000000000000000000, 0.000000000000000000, 0.000000000000000000 ) ) ;
#146 = DATE_AND_TIME ( #52, #143 ) ;
#147 = PRODUCT_DEFINITION_FORMATION_WITH_SPECIFIED_SOURCE ( 'LIBOVOLNÝ', '', #16, .NOT_KNOWN. ) ;
#148 = VECTOR ( 'NONE', #194, 1000.000000000000000 ) ;
#149 = DIRECTION ( 'NONE',  ( 0.000000000000000000, 0.000000000000000000, 1.000000000000000000 ) ) ;
#150 = VECTOR ( 'NONE', #256, 1000.000000000000000 ) ;
#151 = DIRECTION ( 'NONE',  ( 1.000000000000000000, 0.000000000000000000, -0.000000000000000000 ) ) ;
#152 = APPROVAL_STATUS ( 'not_yet_approved' ) ;
#153 = EDGE_CURVE ( 'NONE', #254, #130, #141, .T. ) ;
#154 = CC_DESIGN_APPROVAL ( #248, ( #189 ) ) ;
#155 = FACE_OUTER_BOUND ( 'NONE', #160, .T. ) ;
#156 = ORIENTED_EDGE ( 'NONE', *, *, #58, .T. ) ;
#157 = DIRECTION ( 'NONE',  ( 0.000000000000000000, 0.000000000000000000, 1.000000000000000000 ) ) ;
#158 = CARTESIAN_POINT ( 'NONE',  ( 0.000000000000000000, 0.000000000000000000, 3.000000000000000000 ) ) ;
#159 = CC_DESIGN_PERSON_AND_ORGANIZATION_ASSIGNMENT ( #193, #288, ( #16 ) ) ;
#160 = EDGE_LOOP ( 'NONE', ( #163, #62 ) ) ;
#161 = CARTESIAN_POINT ( 'NONE',  ( 5.000000000000000000, 6.123233995736766282E-16, 3.000000000000000000 ) ) ;
#162 = CARTESIAN_POINT ( 'NONE',  ( 0.000000000000000000, 0.000000000000000000, 3.000000000000000000 ) ) ;
#163 = ORIENTED_EDGE ( 'NONE', *, *, #172, .F. ) ;
#164 = TOROIDAL_SURFACE ( 'NONE', #291, 2.700000000000000178, 0.2000000000000000111 ) ;
#165 = CALENDAR_DATE ( 2022, 7, 7 ) ;
#166 = APPROVAL_PERSON_ORGANIZATION ( #244, #77, #168 ) ;
#167 = AXIS2_PLACEMENT_3D ( 'NONE', #63, #23, #300 ) ;
#168 = APPROVAL_ROLE ( '' ) ;
#169 = CIRCLE ( 'NONE', #226, 0.2000000000000000944 ) ;
#170 = EDGE_CURVE ( 'NONE', #66, #22, #204, .T. ) ;
#171 = PERSON_AND_ORGANIZATION ( #284, #83 ) ;
#172 = EDGE_CURVE ( 'NONE', #133, #99, #26, .T. ) ;
#173 = DIRECTION ( 'NONE',  ( -1.000000000000000000, 0.000000000000000000, 0.000000000000000000 ) ) ;
#174 = AXIS2_PLACEMENT_3D ( 'NONE', #200, #272, #37 ) ;
#175 = CARTESIAN_POINT ( 'NONE',  ( 0.000000000000000000, 0.000000000000000000, 3.200000000000008171 ) ) ;
#176 = APPROVAL_ROLE ( '' ) ;
#177 = EDGE_LOOP ( 'NONE', ( #137, #307, #87, #40 ) ) ;
#178 = APPROVAL_DATE_TIME ( #13, #125 ) ;
#179 = CIRCLE ( 'NONE', #246, 2.500000000000000000 ) ;
#180 = VERTEX_POINT ( 'NONE', #234 ) ;
#181 = FACE_OUTER_BOUND ( 'NONE', #91, .T. ) ;
#182 = CARTESIAN_POINT ( 'NONE',  ( 2.500000000000000000, 3.061616997868383141E-16, 3.200000000000008171 ) ) ;
#183 = PERSON_AND_ORGANIZATION ( #284, #83 ) ;
#184 = EDGE_CURVE ( 'NONE', #12, #99, #68, .T. ) ;
#185 = EDGE_LOOP ( 'NONE', ( #262, #44 ) ) ;
#186 = CARTESIAN_POINT ( 'NONE',  ( -5.000000000000000000, 0.000000000000000000, 0.000000000000000000 ) ) ;
#187 = CARTESIAN_POINT ( 'NONE',  ( -2.700000000000000178, 3.306546357697853733E-16, 3.200000000000008171 ) ) ;
#188 = EDGE_LOOP ( 'NONE', ( #215, #108, #98, #280 ) ) ;
#189 = SECURITY_CLASSIFICATION ( '', '', #207 ) ;
#190 = EDGE_CURVE ( 'NONE', #254, #233, #212, .T. ) ;
#191 = FACE_OUTER_BOUND ( 'NONE', #223, .T. ) ;
#192 = ORIENTED_EDGE ( 'NONE', *, *, #170, .F. ) ;
#193 = PERSON_AND_ORGANIZATION ( #284, #83 ) ;
#194 = DIRECTION ( 'NONE',  ( -0.000000000000000000, -0.000000000000000000, -1.000000000000000000 ) ) ;
#195 = EDGE_CURVE ( 'NONE', #12, #180, #56, .T. ) ;
#196 = CARTESIAN_POINT ( 'NONE',  ( 2.500000000000000000, 3.061616997868383141E-16, 203.0000000000000000 ) ) ;
#197 = ADVANCED_FACE ( 'NONE', ( #85, #181 ), #138, .T. ) ;
#198 = ORIENTED_EDGE ( 'NONE', *, *, #25, .T. ) ;
#199 = AXIS2_PLACEMENT_3D ( 'NONE', #304, #88, #45 ) ;
#200 = CARTESIAN_POINT ( 'NONE',  ( 0.000000000000000000, 0.000000000000000000, 3.000000000000000000 ) ) ;
#201 = DIRECTION ( 'NONE',  ( 0.000000000000000000, 0.000000000000000000, 1.000000000000000000 ) ) ;
#202 = LOCAL_TIME ( 12, 20, 1.000000000000000000, #106 ) ;
#203 = ADVANCED_FACE ( 'NONE', ( #55 ), #271, .T. ) ;
#204 = CIRCLE ( 'NONE', #292, 0.2000000000000000944 ) ;
#205 = ORIENTED_EDGE ( 'NONE', *, *, #92, .F. ) ;
#206 = AXIS2_PLACEMENT_3D ( 'NONE', #126, #201, #151 ) ;
#207 = SECURITY_CLASSIFICATION_LEVEL ( 'unclassified' ) ;
#208 = ORIENTED_EDGE ( 'NONE', *, *, #25, .F. ) ;
#209 = CARTESIAN_POINT ( 'NONE',  ( 5.000000000000000000, 6.123233995736766282E-16, 0.000000000000000000 ) ) ;
#210 = DATE_TIME_ROLE ( 'classification_date' ) ;
#211 = ORIENTED_EDGE ( 'NONE', *, *, #245, .T. ) ;
#212 = LINE ( 'NONE', #42, #214 ) ;
#213 = DIRECTION ( 'NONE',  ( 1.000000000000000000, 0.000000000000000000, -0.000000000000000000 ) ) ;
#214 = VECTOR ( 'NONE', #259, 1000.000000000000000 ) ;
#215 = ORIENTED_EDGE ( 'NONE', *, *, #195, .F. ) ;
#216 = DIRECTION ( 'NONE',  ( 0.000000000000000000, -1.000000000000000000, 0.000000000000000000 ) ) ;
#217 = CIRCLE ( 'NONE', #74, 2.700000000000000178 ) ;
#218 = APPLICATION_CONTEXT ( 'configuration controlled 3d designs of mechanical parts and assemblies' ) ;
#219 =( NAMED_UNIT ( * ) PLANE_ANGLE_UNIT ( ) SI_UNIT ( $, .RADIAN. ) );
#220 = ADVANCED_FACE ( 'NONE', ( #247 ), #35, .T. ) ;
#221 = FACE_OUTER_BOUND ( 'NONE', #188, .T. ) ;
#222 = CC_DESIGN_SECURITY_CLASSIFICATION ( #189, ( #147 ) ) ;
#223 = EDGE_LOOP ( 'NONE', ( #252, #255, #17, #208 ) ) ;
#224 = APPLICATION_CONTEXT ( 'configuration controlled 3d designs of mechanical parts and assemblies' ) ;
#225 = ADVANCED_FACE ( 'NONE', ( #57 ), #287, .F. ) ;
#226 = AXIS2_PLACEMENT_3D ( 'NONE', #187, #46, #109 ) ;
#227 = DIRECTION ( 'NONE',  ( 1.000000000000000000, 0.000000000000000000, -0.000000000000000000 ) ) ;
#228 = CC_DESIGN_DATE_AND_TIME_ASSIGNMENT ( #264, #47, ( #242 ) ) ;
#229 = DIRECTION ( 'NONE',  ( 0.000000000000000000, 0.000000000000000000, 1.000000000000000000 ) ) ;
#230 = VERTEX_POINT ( 'NONE', #250 ) ;
#231 = CARTESIAN_POINT ( 'NONE',  ( 0.000000000000000000, 0.000000000000000000, 0.000000000000000000 ) ) ;
#232 = CALENDAR_DATE ( 2022, 7, 7 ) ;
#233 = VERTEX_POINT ( 'NONE', #295 ) ;
#234 = CARTESIAN_POINT ( 'NONE',  ( -5.000000000000000000, 0.000000000000000000, 3.000000000000000000 ) ) ;
#235 = CARTESIAN_POINT ( 'NONE',  ( 0.000000000000000000, 0.000000000000000000, 3.200000000000008171 ) ) ;
#236 = CALENDAR_DATE ( 2022, 7, 7 ) ;
#237 = ORIENTED_EDGE ( 'NONE', *, *, #190, .T. ) ;
#238 = CARTESIAN_POINT ( 'NONE',  ( 0.000000000000000000, 0.000000000000000000, 3.000000000000000000 ) ) ;
#239 = CARTESIAN_POINT ( 'NONE',  ( 0.000000000000000000, 0.000000000000000000, 3.000000000000000000 ) ) ;
#240 = AXIS2_PLACEMENT_3D ( 'NONE', #238, #149, #227 ) ;
#241 =( LENGTH_UNIT ( ) NAMED_UNIT ( * ) SI_UNIT ( .MILLI., .METRE. ) );
#242 = PRODUCT_DEFINITION ( 'NEZNÁMÝ', '', #147, #293 ) ;
#243 = LINE ( 'NONE', #196, #148 ) ;
#244 = PERSON_AND_ORGANIZATION ( #284, #83 ) ;
#245 = EDGE_CURVE ( 'NONE', #180, #12, #67, .T. ) ;
#246 = AXIS2_PLACEMENT_3D ( 'NONE', #129, #229, #10 ) ;
#247 = FACE_OUTER_BOUND ( 'NONE', #185, .T. ) ;
#248 = APPROVAL ( #152, 'NEURÈENÝ' ) ;
#249 = CALENDAR_DATE ( 2022, 7, 7 ) ;
#250 = CARTESIAN_POINT ( 'NONE',  ( -2.700000000000000178, 3.306546357697853733E-16, 3.000000000000004441 ) ) ;
#251 = EDGE_CURVE ( 'NONE', #66, #233, #179, .T. ) ;
#252 = ORIENTED_EDGE ( 'NONE', *, *, #30, .F. ) ;
#253 = APPROVAL_STATUS ( 'not_yet_approved' ) ;
#254 = VERTEX_POINT ( 'NONE', #7 ) ;
#255 = ORIENTED_EDGE ( 'NONE', *, *, #251, .F. ) ;
#256 = DIRECTION ( 'NONE',  ( -0.000000000000000000, -0.000000000000000000, -1.000000000000000000 ) ) ;
#257 = CARTESIAN_POINT ( 'NONE',  ( 2.500000000000000000, 3.061616997868383141E-16, 203.0000000000000000 ) ) ;
#258 = ORIENTED_EDGE ( 'NONE', *, *, #58, .F. ) ;
#259 = DIRECTION ( 'NONE',  ( -0.000000000000000000, -0.000000000000000000, -1.000000000000000000 ) ) ;
#260 = DIRECTION ( 'NONE',  ( 0.000000000000000000, 0.000000000000000000, 1.000000000000000000 ) ) ;
#261 = AXIS2_PLACEMENT_3D ( 'NONE', #145, #122, #49 ) ;
#262 = ORIENTED_EDGE ( 'NONE', *, *, #153, .T. ) ;
#263 = EDGE_CURVE ( 'NONE', #180, #133, #101, .T. ) ;
#264 = DATE_AND_TIME ( #165, #112 ) ;
#265 = MECHANICAL_CONTEXT ( 'NONE', #218, 'mechanical' ) ;
#266 = AXIS2_PLACEMENT_3D ( 'NONE', #235, #283, #69 ) ;
#267 = COORDINATED_UNIVERSAL_TIME_OFFSET ( 1, 0, .AHEAD. ) ;
#268 = PERSON_AND_ORGANIZATION_ROLE ( 'creator' ) ;
#269 = ADVANCED_FACE ( 'NONE', ( #221 ), #97, .T. ) ;
#270 = CC_DESIGN_PERSON_AND_ORGANIZATION_ASSIGNMENT ( #110, #59, ( #147 ) ) ;
#271 = CYLINDRICAL_SURFACE ( 'NONE', #14, 2.500000000000000000 ) ;
#272 = DIRECTION ( 'NONE',  ( 0.000000000000000000, 0.000000000000000000, 1.000000000000000000 ) ) ;
#273 = PERSON_AND_ORGANIZATION ( #284, #83 ) ;
#274 = ADVANCED_FACE ( 'NONE', ( #191 ), #164, .F. ) ;
#275 = CARTESIAN_POINT ( 'NONE',  ( 0.000000000000000000, 0.000000000000000000, 203.0000000000000000 ) ) ;
#276 = EDGE_LOOP ( 'NONE', ( #258, #111, #205, #192 ) ) ;
#277 = DIRECTION ( 'NONE',  ( 1.000000000000000000, 0.000000000000000000, 0.000000000000000000 ) ) ;
#278 = DIRECTION ( 'NONE',  ( -0.000000000000000000, -0.000000000000000000, -1.000000000000000000 ) ) ;
#279 = DATE_AND_TIME ( #236, #21 ) ;
#280 = ORIENTED_EDGE ( 'NONE', *, *, #263, .F. ) ;
#281 = AXIS2_PLACEMENT_3D ( 'NONE', #89, #260, #140 ) ;
#282 = CARTESIAN_POINT ( 'NONE',  ( 0.000000000000000000, 0.000000000000000000, 203.0000000000000000 ) ) ;
#283 = DIRECTION ( 'NONE',  ( 0.000000000000000000, 0.000000000000000000, 1.000000000000000000 ) ) ;
#284 = PERSON ( 'NEURÈENÝ', 'NEURÈENÝ', 'NEURÈENÝ', ('NEURÈENÝ'), ('NEURÈENÝ'), ('NEURÈENÝ') ) ;
#285 = EDGE_LOOP ( 'NONE', ( #115, #105, #84, #70 ) ) ;
#286 = DIRECTION ( 'NONE',  ( -0.000000000000000000, -0.000000000000000000, -1.000000000000000000 ) ) ;
#287 = TOROIDAL_SURFACE ( 'NONE', #31, 2.700000000000000178, 0.2000000000000000111 ) ;
#288 = PERSON_AND_ORGANIZATION_ROLE ( 'design_owner' ) ;
#289 = APPLICATION_PROTOCOL_DEFINITION ( 'international standard', 'config_control_design', 1994, #224 ) ;
#290 = DIRECTION ( 'NONE',  ( -0.000000000000000000, -0.000000000000000000, -1.000000000000000000 ) ) ;
#291 = AXIS2_PLACEMENT_3D ( 'NONE', #27, #144, #72 ) ;
#292 = AXIS2_PLACEMENT_3D ( 'NONE', #116, #216, #18 ) ;
#293 = DESIGN_CONTEXT ( 'detailed design', #224, 'design' ) ;
#294 = DIRECTION ( 'NONE',  ( 0.000000000000000000, 0.000000000000000000, 1.000000000000000000 ) ) ;
#295 = CARTESIAN_POINT ( 'NONE',  ( -2.500000000000000000, 0.000000000000000000, 3.200000000000008171 ) ) ;
#296 = CC_DESIGN_APPROVAL ( #125, ( #147 ) ) ;
#297 = FACE_OUTER_BOUND ( 'NONE', #134, .T. ) ;
#298 = PERSON_AND_ORGANIZATION_ROLE ( 'classification_officer' ) ;
#299 = CYLINDRICAL_SURFACE ( 'NONE', #127, 2.500000000000000000 ) ;
#300 = DIRECTION ( 'NONE',  ( 1.000000000000000000, 0.000000000000000000, 0.000000000000000000 ) ) ;
#301 = FACE_OUTER_BOUND ( 'NONE', #177, .T. ) ;
#302 = VECTOR ( 'NONE', #290, 1000.000000000000000 ) ;
#303 = ORIENTED_EDGE ( 'NONE', *, *, #306, .F. ) ;
#304 = CARTESIAN_POINT ( 'NONE',  ( 0.000000000000000000, 0.000000000000000000, 3.000000000000000000 ) ) ;
#305 = DIRECTION ( 'NONE',  ( 0.000000000000000000, 0.000000000000000000, 1.000000000000000000 ) ) ;
#306 = EDGE_CURVE ( 'NONE', #130, #66, #243, .T. ) ;
#307 = ORIENTED_EDGE ( 'NONE', *, *, #245, .F. ) ;
ENDSEC;
END-ISO-10303-21;
