ISO-10303-21;
HEADER;
FILE_DESCRIPTION (( 'STEP AP203' ),
    '1' );
FILE_NAME ('cd30.STEP',
    '2023-02-12T11:49:17',
    ( '' ),
    ( '' ),
    'SwSTEP 2.0',
    'SolidWorks 2019',
    '' );
FILE_SCHEMA (( 'CONFIG_CONTROL_DESIGN' ));
ENDSEC;

DATA;
#1 = AXIS2_PLACEMENT_3D ( 'NONE', #110, #57, #188 ) ;
#2 = CC_DESIGN_SECURITY_CLASSIFICATION ( #61, ( #150 ) ) ;
#3 = EDGE_LOOP ( 'NONE', ( #190, #78, #148, #198 ) ) ;
#4 = ADVANCED_BREP_SHAPE_REPRESENTATION ( 'cd30', ( #31, #207 ), #248 ) ;
#5 = DATE_AND_TIME ( #25, #140 ) ;
#6 = DIRECTION ( 'NONE',  ( -0.000000000000000000, -0.000000000000000000, -1.000000000000000000 ) ) ;
#7 = EDGE_CURVE ( 'NONE', #100, #233, #215, .T. ) ;
#8 = EDGE_LOOP ( 'NONE', ( #18, #66 ) ) ;
#9 = DESIGN_CONTEXT ( 'detailed design', #201, 'design' ) ;
#10 = AXIS2_PLACEMENT_3D ( 'NONE', #221, #55, #169 ) ;
#11 = DIRECTION ( 'NONE',  ( -0.000000000000000000, -0.000000000000000000, -1.000000000000000000 ) ) ;
#12 = APPROVAL_PERSON_ORGANIZATION ( #217, #176, #120 ) ;
#13 = CARTESIAN_POINT ( 'NONE',  ( 0.000000000000000000, 0.000000000000000000, 160.0000000000000000 ) ) ;
#14 = FACE_OUTER_BOUND ( 'NONE', #3, .T. ) ;
#15 = EDGE_CURVE ( 'NONE', #233, #100, #244, .T. ) ;
#16 = COORDINATED_UNIVERSAL_TIME_OFFSET ( 1, 0, .AHEAD. ) ;
#17 = CARTESIAN_POINT ( 'NONE',  ( -7.000000000000000000, 0.000000000000000000, 0.000000000000000000 ) ) ;
#18 = ORIENTED_EDGE ( 'NONE', *, *, #228, .T. ) ;
#19 = CARTESIAN_POINT ( 'NONE',  ( 0.000000000000000000, 0.000000000000000000, 5.000000000000000000 ) ) ;
#20 = EDGE_CURVE ( 'NONE', #237, #119, #58, .T. ) ;
#21 = VERTEX_POINT ( 'NONE', #143 ) ;
#22 = PERSON_AND_ORGANIZATION_ROLE ( 'design_owner' ) ;
#23 = ORIENTED_EDGE ( 'NONE', *, *, #53, .T. ) ;
#24 = ORIENTED_EDGE ( 'NONE', *, *, #101, .T. ) ;
#25 = CALENDAR_DATE ( 2023, 12, 2 ) ;
#26 = CC_DESIGN_APPROVAL ( #246, ( #61 ) ) ;
#27 = DIRECTION ( 'NONE',  ( 1.000000000000000000, 0.000000000000000000, 0.000000000000000000 ) ) ;
#28 = DIRECTION ( 'NONE',  ( 0.000000000000000000, 0.000000000000000000, 1.000000000000000000 ) ) ;
#29 = APPROVAL_STATUS ( 'not_yet_approved' ) ;
#30 = DIRECTION ( 'NONE',  ( -1.000000000000000000, 0.000000000000000000, 0.000000000000000000 ) ) ;
#31 = MANIFOLD_SOLID_BREP ( 'Pøidat vysunutím3', #65 ) ;
#32 = PERSON_AND_ORGANIZATION ( #194, #213 ) ;
#33 = DIRECTION ( 'NONE',  ( 0.000000000000000000, 0.000000000000000000, 1.000000000000000000 ) ) ;
#34 = DIRECTION ( 'NONE',  ( -0.000000000000000000, -0.000000000000000000, -1.000000000000000000 ) ) ;
#35 = CARTESIAN_POINT ( 'NONE',  ( 4.000000000000000000, 4.898587196589412829E-16, 160.0000000000000000 ) ) ;
#36 = SHAPE_DEFINITION_REPRESENTATION ( #111, #4 ) ;
#37 = DIRECTION ( 'NONE',  ( -0.000000000000000000, -0.000000000000000000, -1.000000000000000000 ) ) ;
#38 = CARTESIAN_POINT ( 'NONE',  ( 0.000000000000000000, 0.000000000000000000, 5.000000000000000000 ) ) ;
#39 = ORIENTED_EDGE ( 'NONE', *, *, #89, .F. ) ;
#40 = CC_DESIGN_PERSON_AND_ORGANIZATION_ASSIGNMENT ( #130, #54, ( #61 ) ) ;
#41 = VECTOR ( 'NONE', #6, 1000.000000000000000 ) ;
#42 = ORIENTED_EDGE ( 'NONE', *, *, #137, .T. ) ;
#43 = CC_DESIGN_APPROVAL ( #113, ( #150 ) ) ;
#44 = ADVANCED_FACE ( 'NONE', ( #203 ), #104, .T. ) ;
#45 =( NAMED_UNIT ( * ) PLANE_ANGLE_UNIT ( ) SI_UNIT ( $, .RADIAN. ) );
#46 = CIRCLE ( 'NONE', #211, 4.000000000000000000 ) ;
#47 = APPROVAL_ROLE ( '' ) ;
#48 = ORIENTED_EDGE ( 'NONE', *, *, #15, .T. ) ;
#49 = DIRECTION ( 'NONE',  ( 0.000000000000000000, 0.000000000000000000, 1.000000000000000000 ) ) ;
#50 = AXIS2_PLACEMENT_3D ( 'NONE', #72, #127, #107 ) ;
#51 = AXIS2_PLACEMENT_3D ( 'NONE', #59, #210, #129 ) ;
#52 = ORIENTED_EDGE ( 'NONE', *, *, #56, .F. ) ;
#53 = EDGE_CURVE ( 'NONE', #175, #237, #226, .T. ) ;
#54 = PERSON_AND_ORGANIZATION_ROLE ( 'classification_officer' ) ;
#55 = DIRECTION ( 'NONE',  ( 0.000000000000000000, 0.000000000000000000, 1.000000000000000000 ) ) ;
#56 = EDGE_CURVE ( 'NONE', #175, #236, #46, .T. ) ;
#57 = DIRECTION ( 'NONE',  ( 0.000000000000000000, 0.000000000000000000, 1.000000000000000000 ) ) ;
#58 = CIRCLE ( 'NONE', #153, 4.000000000000000000 ) ;
#59 = CARTESIAN_POINT ( 'NONE',  ( 0.000000000000000000, 0.000000000000000000, 5.000000000000000000 ) ) ;
#60 = AXIS2_PLACEMENT_3D ( 'NONE', #38, #230, #79 ) ;
#61 = SECURITY_CLASSIFICATION ( '', '', #182 ) ;
#62 = CARTESIAN_POINT ( 'NONE',  ( 0.000000000000000000, 0.000000000000000000, 5.000000000000000000 ) ) ;
#63 = ORIENTED_EDGE ( 'NONE', *, *, #76, .F. ) ;
#64 = DIRECTION ( 'NONE',  ( 0.000000000000000000, 0.000000000000000000, 1.000000000000000000 ) ) ;
#65 = CLOSED_SHELL ( 'NONE', ( #99, #218, #173, #249, #251, #44, #97 ) ) ;
#66 = ORIENTED_EDGE ( 'NONE', *, *, #186, .T. ) ;
#67 = DATE_TIME_ROLE ( 'creation_date' ) ;
#68 = ORIENTED_EDGE ( 'NONE', *, *, #7, .F. ) ;
#69 = CIRCLE ( 'NONE', #51, 7.000000000000000000 ) ;
#70 = CARTESIAN_POINT ( 'NONE',  ( 7.000000000000000000, 8.572527594031473190E-16, 5.000000000000000000 ) ) ;
#71 = CARTESIAN_POINT ( 'NONE',  ( 0.000000000000000000, 0.000000000000000000, 160.0000000000000000 ) ) ;
#72 = CARTESIAN_POINT ( 'NONE',  ( 0.000000000000000000, 0.000000000000000000, 160.0000000000000000 ) ) ;
#73 = CARTESIAN_POINT ( 'NONE',  ( -7.000000000000000000, 0.000000000000000000, 5.000000000000000000 ) ) ;
#74 = VECTOR ( 'NONE', #250, 1000.000000000000000 ) ;
#75 = APPROVAL_ROLE ( '' ) ;
#76 = EDGE_CURVE ( 'NONE', #236, #119, #103, .T. ) ;
#77 = CIRCLE ( 'NONE', #1, 7.000000000000000000 ) ;
#78 = ORIENTED_EDGE ( 'NONE', *, *, #89, .T. ) ;
#79 = DIRECTION ( 'NONE',  ( 1.000000000000000000, 0.000000000000000000, -0.000000000000000000 ) ) ;
#80 = APPROVAL_PERSON_ORGANIZATION ( #220, #113, #47 ) ;
#81 = EDGE_LOOP ( 'NONE', ( #63, #52, #23, #231 ) ) ;
#82 = VERTEX_POINT ( 'NONE', #124 ) ;
#83 = CARTESIAN_POINT ( 'NONE',  ( 4.000000000000000000, 4.898587196589412829E-16, 5.000000000000000000 ) ) ;
#84 = PRODUCT_RELATED_PRODUCT_CATEGORY ( 'detail', '', ( #131 ) ) ;
#85 = CALENDAR_DATE ( 2023, 12, 2 ) ;
#86 = PLANE ( 'NONE',  #219 ) ;
#87 = FACE_OUTER_BOUND ( 'NONE', #134, .T. ) ;
#88 = PRODUCT_DEFINITION ( 'NEZNÁMÝ', '', #150, #9 ) ;
#89 = EDGE_CURVE ( 'NONE', #21, #100, #177, .T. ) ;
#90 = FACE_BOUND ( 'NONE', #135, .T. ) ;
#91 = PERSON_AND_ORGANIZATION ( #194, #213 ) ;
#92 = LOCAL_TIME ( 12, 49, 17.00000000000000000, #225 ) ;
#93 = CALENDAR_DATE ( 2023, 12, 2 ) ;
#94 = PLANE ( 'NONE',  #60 ) ;
#95 = ORIENTED_EDGE ( 'NONE', *, *, #159, .T. ) ;
#96 = APPLICATION_PROTOCOL_DEFINITION ( 'international standard', 'config_control_design', 1994, #189 ) ;
#97 = ADVANCED_FACE ( 'NONE', ( #144 ), #86, .T. ) ;
#98 =( NAMED_UNIT ( * ) SI_UNIT ( $, .STERADIAN. ) SOLID_ANGLE_UNIT ( ) );
#99 = ADVANCED_FACE ( 'NONE', ( #242 ), #222, .T. ) ;
#100 = VERTEX_POINT ( 'NONE', #146 ) ;
#101 = EDGE_CURVE ( 'NONE', #236, #175, #253, .T. ) ;
#102 = VECTOR ( 'NONE', #183, 1000.000000000000000 ) ;
#103 = LINE ( 'NONE', #185, #41 ) ;
#104 = CYLINDRICAL_SURFACE ( 'NONE', #50, 4.000000000000000000 ) ;
#105 = PERSON_AND_ORGANIZATION_ROLE ( 'design_supplier' ) ;
#106 = CARTESIAN_POINT ( 'NONE',  ( -4.000000000000000000, 0.000000000000000000, 160.0000000000000000 ) ) ;
#107 = DIRECTION ( 'NONE',  ( -1.000000000000000000, 0.000000000000000000, 0.000000000000000000 ) ) ;
#108 = CALENDAR_DATE ( 2023, 12, 2 ) ;
#109 = DIRECTION ( 'NONE',  ( 1.000000000000000000, 0.000000000000000000, 0.000000000000000000 ) ) ;
#110 = CARTESIAN_POINT ( 'NONE',  ( 0.000000000000000000, 0.000000000000000000, 5.000000000000000000 ) ) ;
#111 = PRODUCT_DEFINITION_SHAPE ( 'NONE', 'NONE',  #88 ) ;
#112 = PLANE ( 'NONE',  #181 ) ;
#113 = APPROVAL ( #29, 'NEURÈENÝ' ) ;
#114 = APPROVAL_DATE_TIME ( #152, #246 ) ;
#115 = CARTESIAN_POINT ( 'NONE',  ( 0.000000000000000000, 0.000000000000000000, 0.000000000000000000 ) ) ;
#116 = EDGE_LOOP ( 'NONE', ( #234, #24 ) ) ;
#117 = APPLICATION_PROTOCOL_DEFINITION ( 'international standard', 'config_control_design', 1994, #201 ) ;
#118 = ORIENTED_EDGE ( 'NONE', *, *, #228, .F. ) ;
#119 = VERTEX_POINT ( 'NONE', #83 ) ;
#120 = APPROVAL_ROLE ( '' ) ;
#121 = CIRCLE ( 'NONE', #164, 4.000000000000000000 ) ;
#122 = DATE_AND_TIME ( #184, #92 ) ;
#123 = CC_DESIGN_DATE_AND_TIME_ASSIGNMENT ( #243, #172, ( #61 ) ) ;
#124 = CARTESIAN_POINT ( 'NONE',  ( -7.000000000000000000, 0.000000000000000000, 5.000000000000000000 ) ) ;
#125 = PERSON_AND_ORGANIZATION_ROLE ( 'creator' ) ;
#126 = DIRECTION ( 'NONE',  ( 1.000000000000000000, 0.000000000000000000, 0.000000000000000000 ) ) ;
#127 = DIRECTION ( 'NONE',  ( -0.000000000000000000, -0.000000000000000000, -1.000000000000000000 ) ) ;
#128 = DIRECTION ( 'NONE',  ( -1.000000000000000000, 0.000000000000000000, 0.000000000000000000 ) ) ;
#129 = DIRECTION ( 'NONE',  ( 1.000000000000000000, 0.000000000000000000, 0.000000000000000000 ) ) ;
#130 = PERSON_AND_ORGANIZATION ( #194, #213 ) ;
#131 = PRODUCT ( 'cd30', 'cd30', '', ( #138 ) ) ;
#132 = CYLINDRICAL_SURFACE ( 'NONE', #254, 7.000000000000000000 ) ;
#133 = APPROVAL_PERSON_ORGANIZATION ( #91, #246, #75 ) ;
#134 = EDGE_LOOP ( 'NONE', ( #39, #118, #42, #48 ) ) ;
#135 = EDGE_LOOP ( 'NONE', ( #155, #142 ) ) ;
#136 = CC_DESIGN_PERSON_AND_ORGANIZATION_ASSIGNMENT ( #197, #125, ( #88 ) ) ;
#137 = EDGE_CURVE ( 'NONE', #82, #233, #239, .T. ) ;
#138 = MECHANICAL_CONTEXT ( 'NONE', #189, 'mechanical' ) ;
#139 = ORIENTED_EDGE ( 'NONE', *, *, #101, .F. ) ;
#140 = LOCAL_TIME ( 12, 49, 17.00000000000000000, #241 ) ;
#141 =( LENGTH_UNIT ( ) NAMED_UNIT ( * ) SI_UNIT ( .MILLI., .METRE. ) );
#142 = ORIENTED_EDGE ( 'NONE', *, *, #159, .F. ) ;
#143 = CARTESIAN_POINT ( 'NONE',  ( 7.000000000000000000, 8.572527594031473190E-16, 5.000000000000000000 ) ) ;
#144 = FACE_OUTER_BOUND ( 'NONE', #116, .T. ) ;
#145 = APPROVAL_DATE_TIME ( #179, #113 ) ;
#146 = CARTESIAN_POINT ( 'NONE',  ( 7.000000000000000000, 8.572527594031473190E-16, 0.000000000000000000 ) ) ;
#147 = APPROVAL_STATUS ( 'not_yet_approved' ) ;
#148 = ORIENTED_EDGE ( 'NONE', *, *, #7, .T. ) ;
#149 = AXIS2_PLACEMENT_3D ( 'NONE', #19, #37, #209 ) ;
#150 = PRODUCT_DEFINITION_FORMATION_WITH_SPECIFIED_SOURCE ( 'LIBOVOLNÝ', '', #131, .NOT_KNOWN. ) ;
#151 = DIRECTION ( 'NONE',  ( 1.000000000000000000, 0.000000000000000000, -0.000000000000000000 ) ) ;
#152 = DATE_AND_TIME ( #93, #192 ) ;
#153 = AXIS2_PLACEMENT_3D ( 'NONE', #205, #33, #240 ) ;
#154 = LOCAL_TIME ( 12, 49, 17.00000000000000000, #16 ) ;
#155 = ORIENTED_EDGE ( 'NONE', *, *, #20, .F. ) ;
#156 = COORDINATED_UNIVERSAL_TIME_OFFSET ( 1, 0, .AHEAD. ) ;
#157 = FACE_OUTER_BOUND ( 'NONE', #238, .T. ) ;
#158 = VECTOR ( 'NONE', #11, 1000.000000000000000 ) ;
#159 = EDGE_CURVE ( 'NONE', #119, #237, #121, .T. ) ;
#160 = CARTESIAN_POINT ( 'NONE',  ( 0.000000000000000000, 0.000000000000000000, 0.000000000000000000 ) ) ;
#161 = ORIENTED_EDGE ( 'NONE', *, *, #53, .F. ) ;
#162 = DIRECTION ( 'NONE',  ( 1.000000000000000000, 0.000000000000000000, 0.000000000000000000 ) ) ;
#163 = CC_DESIGN_DATE_AND_TIME_ASSIGNMENT ( #5, #67, ( #88 ) ) ;
#164 = AXIS2_PLACEMENT_3D ( 'NONE', #227, #232, #109 ) ;
#165 = DIRECTION ( 'NONE',  ( 1.000000000000000000, 0.000000000000000000, -0.000000000000000000 ) ) ;
#166 = CARTESIAN_POINT ( 'NONE',  ( 0.000000000000000000, 0.000000000000000000, 0.000000000000000000 ) ) ;
#167 = DIRECTION ( 'NONE',  ( 1.000000000000000000, 0.000000000000000000, 0.000000000000000000 ) ) ;
#168 = CARTESIAN_POINT ( 'NONE',  ( 0.000000000000000000, 0.000000000000000000, 160.0000000000000000 ) ) ;
#169 = DIRECTION ( 'NONE',  ( 1.000000000000000000, 0.000000000000000000, 0.000000000000000000 ) ) ;
#170 = DIRECTION ( 'NONE',  ( 0.000000000000000000, 0.000000000000000000, 1.000000000000000000 ) ) ;
#171 = ORIENTED_EDGE ( 'NONE', *, *, #15, .F. ) ;
#172 = DATE_TIME_ROLE ( 'classification_date' ) ;
#173 = ADVANCED_FACE ( 'NONE', ( #87 ), #132, .T. ) ;
#174 = CARTESIAN_POINT ( 'NONE',  ( -4.000000000000000000, 0.000000000000000000, 5.000000000000000000 ) ) ;
#175 = VERTEX_POINT ( 'NONE', #206 ) ;
#176 = APPROVAL ( #147, 'NEURÈENÝ' ) ;
#177 = LINE ( 'NONE', #70, #102 ) ;
#178 = COORDINATED_UNIVERSAL_TIME_OFFSET ( 1, 0, .AHEAD. ) ;
#179 = DATE_AND_TIME ( #85, #187 ) ;
#180 = AXIS2_PLACEMENT_3D ( 'NONE', #166, #28, #126 ) ;
#181 = AXIS2_PLACEMENT_3D ( 'NONE', #115, #193, #165 ) ;
#182 = SECURITY_CLASSIFICATION_LEVEL ( 'unclassified' ) ;
#183 = DIRECTION ( 'NONE',  ( -0.000000000000000000, -0.000000000000000000, -1.000000000000000000 ) ) ;
#184 = CALENDAR_DATE ( 2023, 12, 2 ) ;
#185 = CARTESIAN_POINT ( 'NONE',  ( 4.000000000000000000, 4.898587196589412829E-16, 160.0000000000000000 ) ) ;
#186 = EDGE_CURVE ( 'NONE', #21, #82, #69, .T. ) ;
#187 = LOCAL_TIME ( 12, 49, 17.00000000000000000, #178 ) ;
#188 = DIRECTION ( 'NONE',  ( 1.000000000000000000, 0.000000000000000000, 0.000000000000000000 ) ) ;
#189 = APPLICATION_CONTEXT ( 'configuration controlled 3d designs of mechanical parts and assemblies' ) ;
#190 = ORIENTED_EDGE ( 'NONE', *, *, #186, .F. ) ;
#191 = APPROVAL_STATUS ( 'not_yet_approved' ) ;
#192 = LOCAL_TIME ( 12, 49, 17.00000000000000000, #156 ) ;
#193 = DIRECTION ( 'NONE',  ( 0.000000000000000000, 0.000000000000000000, 1.000000000000000000 ) ) ;
#194 = PERSON ( 'NEURÈENÝ', 'NEURÈENÝ', 'NEURÈENÝ', ('NEURÈENÝ'), ('NEURÈENÝ'), ('NEURÈENÝ') ) ;
#195 = AXIS2_PLACEMENT_3D ( 'NONE', #71, #200, #30 ) ;
#196 = CC_DESIGN_APPROVAL ( #176, ( #88 ) ) ;
#197 = PERSON_AND_ORGANIZATION ( #194, #213 ) ;
#198 = ORIENTED_EDGE ( 'NONE', *, *, #137, .F. ) ;
#199 = APPROVAL_DATE_TIME ( #122, #176 ) ;
#200 = DIRECTION ( 'NONE',  ( -0.000000000000000000, -0.000000000000000000, -1.000000000000000000 ) ) ;
#201 = APPLICATION_CONTEXT ( 'configuration controlled 3d designs of mechanical parts and assemblies' ) ;
#202 = PERSON_AND_ORGANIZATION_ROLE ( 'creator' ) ;
#203 = FACE_OUTER_BOUND ( 'NONE', #81, .T. ) ;
#204 = CC_DESIGN_PERSON_AND_ORGANIZATION_ASSIGNMENT ( #216, #22, ( #131 ) ) ;
#205 = CARTESIAN_POINT ( 'NONE',  ( 0.000000000000000000, 0.000000000000000000, 5.000000000000000000 ) ) ;
#206 = CARTESIAN_POINT ( 'NONE',  ( -4.000000000000000000, 0.000000000000000000, 160.0000000000000000 ) ) ;
#207 = AXIS2_PLACEMENT_3D ( 'NONE', #160, #64, #162 ) ;
#208 = CYLINDRICAL_SURFACE ( 'NONE', #149, 7.000000000000000000 ) ;
#209 = DIRECTION ( 'NONE',  ( -1.000000000000000000, 0.000000000000000000, 0.000000000000000000 ) ) ;
#210 = DIRECTION ( 'NONE',  ( 0.000000000000000000, 0.000000000000000000, 1.000000000000000000 ) ) ;
#211 = AXIS2_PLACEMENT_3D ( 'NONE', #168, #245, #167 ) ;
#212 = CC_DESIGN_PERSON_AND_ORGANIZATION_ASSIGNMENT ( #32, #105, ( #150 ) ) ;
#213 = ORGANIZATION ( 'NEURÈENÝ', 'NEURÈENÝ', '' ) ;
#214 = EDGE_LOOP ( 'NONE', ( #139, #255, #95, #161 ) ) ;
#215 = CIRCLE ( 'NONE', #10, 7.000000000000000000 ) ;
#216 = PERSON_AND_ORGANIZATION ( #194, #213 ) ;
#217 = PERSON_AND_ORGANIZATION ( #194, #213 ) ;
#218 = ADVANCED_FACE ( 'NONE', ( #14 ), #208, .T. ) ;
#219 = AXIS2_PLACEMENT_3D ( 'NONE', #13, #170, #151 ) ;
#220 = PERSON_AND_ORGANIZATION ( #194, #213 ) ;
#221 = CARTESIAN_POINT ( 'NONE',  ( 0.000000000000000000, 0.000000000000000000, 0.000000000000000000 ) ) ;
#222 = CYLINDRICAL_SURFACE ( 'NONE', #195, 4.000000000000000000 ) ;
#223 = PERSON_AND_ORGANIZATION ( #194, #213 ) ;
#224 = CARTESIAN_POINT ( 'NONE',  ( 0.000000000000000000, 0.000000000000000000, 160.0000000000000000 ) ) ;
#225 = COORDINATED_UNIVERSAL_TIME_OFFSET ( 1, 0, .AHEAD. ) ;
#226 = LINE ( 'NONE', #106, #158 ) ;
#227 = CARTESIAN_POINT ( 'NONE',  ( 0.000000000000000000, 0.000000000000000000, 5.000000000000000000 ) ) ;
#228 = EDGE_CURVE ( 'NONE', #82, #21, #77, .T. ) ;
#229 = AXIS2_PLACEMENT_3D ( 'NONE', #224, #49, #27 ) ;
#230 = DIRECTION ( 'NONE',  ( 0.000000000000000000, 0.000000000000000000, 1.000000000000000000 ) ) ;
#231 = ORIENTED_EDGE ( 'NONE', *, *, #20, .T. ) ;
#232 = DIRECTION ( 'NONE',  ( 0.000000000000000000, 0.000000000000000000, 1.000000000000000000 ) ) ;
#233 = VERTEX_POINT ( 'NONE', #17 ) ;
#234 = ORIENTED_EDGE ( 'NONE', *, *, #56, .T. ) ;
#235 = CC_DESIGN_PERSON_AND_ORGANIZATION_ASSIGNMENT ( #223, #202, ( #150 ) ) ;
#236 = VERTEX_POINT ( 'NONE', #35 ) ;
#237 = VERTEX_POINT ( 'NONE', #174 ) ;
#238 = EDGE_LOOP ( 'NONE', ( #171, #68 ) ) ;
#239 = LINE ( 'NONE', #73, #74 ) ;
#240 = DIRECTION ( 'NONE',  ( 1.000000000000000000, 0.000000000000000000, 0.000000000000000000 ) ) ;
#241 = COORDINATED_UNIVERSAL_TIME_OFFSET ( 1, 0, .AHEAD. ) ;
#242 = FACE_OUTER_BOUND ( 'NONE', #214, .T. ) ;
#243 = DATE_AND_TIME ( #108, #154 ) ;
#244 = CIRCLE ( 'NONE', #180, 7.000000000000000000 ) ;
#245 = DIRECTION ( 'NONE',  ( 0.000000000000000000, 0.000000000000000000, 1.000000000000000000 ) ) ;
#246 = APPROVAL ( #191, 'NEURÈENÝ' ) ;
#247 = FACE_OUTER_BOUND ( 'NONE', #8, .T. ) ;
#248 =( GEOMETRIC_REPRESENTATION_CONTEXT ( 3 ) GLOBAL_UNCERTAINTY_ASSIGNED_CONTEXT ( ( #252 ) ) GLOBAL_UNIT_ASSIGNED_CONTEXT ( ( #141, #45, #98 ) ) REPRESENTATION_CONTEXT ( 'NONE', 'WORKASPACE' ) );
#249 = ADVANCED_FACE ( 'NONE', ( #90, #247 ), #94, .T. ) ;
#250 = DIRECTION ( 'NONE',  ( -0.000000000000000000, -0.000000000000000000, -1.000000000000000000 ) ) ;
#251 = ADVANCED_FACE ( 'NONE', ( #157 ), #112, .F. ) ;
#252 = UNCERTAINTY_MEASURE_WITH_UNIT (LENGTH_MEASURE( 1.000000000000000082E-05 ), #141, 'distance_accuracy_value', 'NONE');
#253 = CIRCLE ( 'NONE', #229, 4.000000000000000000 ) ;
#254 = AXIS2_PLACEMENT_3D ( 'NONE', #62, #34, #128 ) ;
#255 = ORIENTED_EDGE ( 'NONE', *, *, #76, .T. ) ;
ENDSEC;
END-ISO-10303-21;
