ISO-10303-21;
HEADER;
FILE_DESCRIPTION (( 'STEP AP203' ),
    '1' );
FILE_NAME ('c12f.STEP',
    '2022-07-07T10:36:44',
    ( '' ),
    ( '' ),
    'SwSTEP 2.0',
    'SolidWorks 2019',
    '' );
FILE_SCHEMA (( 'CONFIG_CONTROL_DESIGN' ));
ENDSEC;

DATA;
#1 = CARTESIAN_POINT ( 'NONE',  ( -2.000000000000000000, 0.000000000000000000, 1.500000000000000000 ) ) ;
#2 = FACE_OUTER_BOUND ( 'NONE', #260, .T. ) ;
#3 = AXIS2_PLACEMENT_3D ( 'NONE', #134, #19, #62 ) ;
#4 = DIRECTION ( 'NONE',  ( 0.000000000000000000, 0.000000000000000000, 1.000000000000000000 ) ) ;
#5 = VERTEX_POINT ( 'NONE', #122 ) ;
#6 = ADVANCED_FACE ( 'NONE', ( #290 ), #75, .T. ) ;
#7 = CIRCLE ( 'NONE', #242, 1.149999999999999911 ) ;
#8 = DATE_TIME_ROLE ( 'creation_date' ) ;
#9 = ORIENTED_EDGE ( 'NONE', *, *, #251, .F. ) ;
#10 = ORIENTED_EDGE ( 'NONE', *, *, #138, .F. ) ;
#11 = PERSON_AND_ORGANIZATION ( #133, #25 ) ;
#12 = FACE_OUTER_BOUND ( 'NONE', #216, .T. ) ;
#13 =( GEOMETRIC_REPRESENTATION_CONTEXT ( 3 ) GLOBAL_UNCERTAINTY_ASSIGNED_CONTEXT ( ( #60 ) ) GLOBAL_UNIT_ASSIGNED_CONTEXT ( ( #191, #160, #116 ) ) REPRESENTATION_CONTEXT ( 'NONE', 'WORKASPACE' ) );
#14 = ORIENTED_EDGE ( 'NONE', *, *, #105, .T. ) ;
#15 = CARTESIAN_POINT ( 'NONE',  ( 0.000000000000000000, 0.000000000000000000, 1.500000000000000000 ) ) ;
#16 = DIRECTION ( 'NONE',  ( 0.000000000000000000, 0.000000000000000000, 1.000000000000000000 ) ) ;
#17 = AXIS2_PLACEMENT_3D ( 'NONE', #15, #252, #184 ) ;
#18 = CARTESIAN_POINT ( 'NONE',  ( 0.000000000000000000, 0.000000000000000000, 1.700000000000007061 ) ) ;
#19 = DIRECTION ( 'NONE',  ( 0.000000000000000000, 0.000000000000000000, 1.000000000000000000 ) ) ;
#20 = APPLICATION_PROTOCOL_DEFINITION ( 'international standard', 'config_control_design', 1994, #233 ) ;
#21 = CARTESIAN_POINT ( 'NONE',  ( -2.000000000000000000, 0.000000000000000000, 1.500000000000000000 ) ) ;
#22 = CIRCLE ( 'NONE', #180, 2.000000000000000000 ) ;
#23 = DIRECTION ( 'NONE',  ( 0.000000000000000000, 0.000000000000000000, 1.000000000000000000 ) ) ;
#24 = CC_DESIGN_PERSON_AND_ORGANIZATION_ASSIGNMENT ( #257, #264, ( #153 ) ) ;
#25 = ORGANIZATION ( 'NEURÈENÝ', 'NEURÈENÝ', '' ) ;
#26 = CALENDAR_DATE ( 2022, 7, 7 ) ;
#27 = EDGE_LOOP ( 'NONE', ( #98, #220, #274, #145 ) ) ;
#28 = AXIS2_PLACEMENT_3D ( 'NONE', #203, #230, #182 ) ;
#29 = VERTEX_POINT ( 'NONE', #144 ) ;
#30 = VERTEX_POINT ( 'NONE', #293 ) ;
#31 = ORIENTED_EDGE ( 'NONE', *, *, #301, .T. ) ;
#32 = VECTOR ( 'NONE', #189, 1000.000000000000000 ) ;
#33 = CC_DESIGN_PERSON_AND_ORGANIZATION_ASSIGNMENT ( #11, #241, ( #135 ) ) ;
#34 = CARTESIAN_POINT ( 'NONE',  ( 0.9499999999999999556, 1.163414459189985682E-16, 1.700000000000007061 ) ) ;
#35 = DIRECTION ( 'NONE',  ( -0.000000000000000000, -0.000000000000000000, -1.000000000000000000 ) ) ;
#36 = ADVANCED_FACE ( 'NONE', ( #199 ), #294, .T. ) ;
#37 = CYLINDRICAL_SURFACE ( 'NONE', #194, 2.000000000000000000 ) ;
#38 = CLOSED_SHELL ( 'NONE', ( #271, #307, #211, #44, #99, #208, #36, #6, #90 ) ) ;
#39 = DIRECTION ( 'NONE',  ( 1.000000000000000000, 0.000000000000000000, 0.000000000000000000 ) ) ;
#40 = CYLINDRICAL_SURFACE ( 'NONE', #236, 2.000000000000000000 ) ;
#41 = LINE ( 'NONE', #1, #285 ) ;
#42 = AXIS2_PLACEMENT_3D ( 'NONE', #162, #110, #89 ) ;
#43 = PERSON_AND_ORGANIZATION ( #133, #25 ) ;
#44 = ADVANCED_FACE ( 'NONE', ( #12 ), #40, .T. ) ;
#45 = LINE ( 'NONE', #234, #32 ) ;
#46 = CARTESIAN_POINT ( 'NONE',  ( 0.000000000000000000, 0.000000000000000000, 1.700000000000007061 ) ) ;
#47 = LOCAL_TIME ( 12, 36, 44.00000000000000000, #231 ) ;
#48 = APPROVAL_DATE_TIME ( #117, #167 ) ;
#49 = ORIENTED_EDGE ( 'NONE', *, *, #105, .F. ) ;
#50 = PERSON_AND_ORGANIZATION_ROLE ( 'creator' ) ;
#51 = DIRECTION ( 'NONE',  ( 0.000000000000000000, 0.000000000000000000, 1.000000000000000000 ) ) ;
#52 = APPROVAL ( #193, 'NEURÈENÝ' ) ;
#53 = ORIENTED_EDGE ( 'NONE', *, *, #301, .F. ) ;
#54 = AXIS2_PLACEMENT_3D ( 'NONE', #46, #4, #262 ) ;
#55 = EDGE_LOOP ( 'NONE', ( #125, #276 ) ) ;
#56 = APPROVAL_DATE_TIME ( #215, #52 ) ;
#57 = VERTEX_POINT ( 'NONE', #109 ) ;
#58 = CC_DESIGN_DATE_AND_TIME_ASSIGNMENT ( #269, #287, ( #135 ) ) ;
#59 = LINE ( 'NONE', #226, #261 ) ;
#60 = UNCERTAINTY_MEASURE_WITH_UNIT (LENGTH_MEASURE( 1.000000000000000082E-05 ), #191, 'distance_accuracy_value', 'NONE');
#61 = LOCAL_TIME ( 12, 36, 44.00000000000000000, #168 ) ;
#62 = DIRECTION ( 'NONE',  ( 1.000000000000000000, 0.000000000000000000, -0.000000000000000000 ) ) ;
#63 = CARTESIAN_POINT ( 'NONE',  ( 0.000000000000000000, 0.000000000000000000, 126.5000000000000000 ) ) ;
#64 = CARTESIAN_POINT ( 'NONE',  ( 2.000000000000000000, 2.449293598294706414E-16, 1.500000000000000000 ) ) ;
#65 = CC_DESIGN_APPROVAL ( #244, ( #82 ) ) ;
#66 = PLANE ( 'NONE',  #71 ) ;
#67 = ORIENTED_EDGE ( 'NONE', *, *, #159, .F. ) ;
#68 = AXIS2_PLACEMENT_3D ( 'NONE', #132, #277, #280 ) ;
#69 = PERSON_AND_ORGANIZATION ( #133, #25 ) ;
#70 = EDGE_CURVE ( 'NONE', #195, #29, #22, .T. ) ;
#71 = AXIS2_PLACEMENT_3D ( 'NONE', #158, #205, #253 ) ;
#72 = APPROVAL_ROLE ( '' ) ;
#73 = ORIENTED_EDGE ( 'NONE', *, *, #259, .T. ) ;
#74 = EDGE_CURVE ( 'NONE', #288, #119, #156, .T. ) ;
#75 = PLANE ( 'NONE',  #254 ) ;
#76 = PERSON_AND_ORGANIZATION_ROLE ( 'design_supplier' ) ;
#77 = CARTESIAN_POINT ( 'NONE',  ( 0.000000000000000000, 0.000000000000000000, 126.5000000000000000 ) ) ;
#78 = DIRECTION ( 'NONE',  ( -1.000000000000000000, 0.000000000000000000, 0.000000000000000000 ) ) ;
#79 = ORIENTED_EDGE ( 'NONE', *, *, #149, .T. ) ;
#80 = DIRECTION ( 'NONE',  ( 0.000000000000000000, 0.000000000000000000, 1.000000000000000000 ) ) ;
#81 = CARTESIAN_POINT ( 'NONE',  ( 0.000000000000000000, 0.000000000000000000, 1.700000000000007061 ) ) ;
#82 = PRODUCT_DEFINITION ( 'NEZNÁMÝ', '', #151, #250 ) ;
#83 = CARTESIAN_POINT ( 'NONE',  ( 0.000000000000000000, 0.000000000000000000, 126.5000000000000000 ) ) ;
#84 = DIRECTION ( 'NONE',  ( -1.000000000000000000, 0.000000000000000000, 0.000000000000000000 ) ) ;
#85 = CARTESIAN_POINT ( 'NONE',  ( -0.9499999999999999556, 0.000000000000000000, 126.5000000000000000 ) ) ;
#86 = CC_DESIGN_PERSON_AND_ORGANIZATION_ASSIGNMENT ( #43, #212, ( #82 ) ) ;
#87 = CC_DESIGN_APPROVAL ( #167, ( #151 ) ) ;
#88 = DIRECTION ( 'NONE',  ( 0.000000000000000000, 0.000000000000000000, 1.000000000000000000 ) ) ;
#89 = DIRECTION ( 'NONE',  ( 0.000000000000000000, 0.000000000000000000, -1.000000000000000000 ) ) ;
#90 = ADVANCED_FACE ( 'NONE', ( #154 ), #213, .F. ) ;
#91 = COORDINATED_UNIVERSAL_TIME_OFFSET ( 1, 0, .AHEAD. ) ;
#92 = CIRCLE ( 'NONE', #42, 0.2000000000000000944 ) ;
#93 = CARTESIAN_POINT ( 'NONE',  ( 0.000000000000000000, 0.000000000000000000, 1.500000000000000000 ) ) ;
#94 = CALENDAR_DATE ( 2022, 7, 7 ) ;
#95 = EDGE_LOOP ( 'NONE', ( #200, #14 ) ) ;
#96 = LOCAL_TIME ( 12, 36, 44.00000000000000000, #239 ) ;
#97 = APPROVAL_STATUS ( 'not_yet_approved' ) ;
#98 = ORIENTED_EDGE ( 'NONE', *, *, #259, .F. ) ;
#99 = ADVANCED_FACE ( 'NONE', ( #150, #206 ), #279, .T. ) ;
#100 = ORIENTED_EDGE ( 'NONE', *, *, #113, .T. ) ;
#101 = ORIENTED_EDGE ( 'NONE', *, *, #74, .F. ) ;
#102 = CIRCLE ( 'NONE', #157, 0.9499999999999999556 ) ;
#103 = FACE_OUTER_BOUND ( 'NONE', #148, .T. ) ;
#104 = DIRECTION ( 'NONE',  ( 0.000000000000000000, 0.000000000000000000, 1.000000000000000000 ) ) ;
#105 = EDGE_CURVE ( 'NONE', #57, #120, #173, .T. ) ;
#106 = CARTESIAN_POINT ( 'NONE',  ( -0.9499999999999999556, 0.000000000000000000, 126.5000000000000000 ) ) ;
#107 = DIRECTION ( 'NONE',  ( 1.224646799147353207E-16, 1.000000000000000000, -0.000000000000000000 ) ) ;
#108 = EDGE_CURVE ( 'NONE', #147, #30, #209, .T. ) ;
#109 = CARTESIAN_POINT ( 'NONE',  ( 0.9499999999999999556, 1.163414459189985682E-16, 126.5000000000000000 ) ) ;
#110 = DIRECTION ( 'NONE',  ( 0.000000000000000000, -1.000000000000000000, 0.000000000000000000 ) ) ;
#111 = AXIS2_PLACEMENT_3D ( 'NONE', #81, #16, #129 ) ;
#112 = CALENDAR_DATE ( 2022, 7, 7 ) ;
#113 = EDGE_CURVE ( 'NONE', #119, #195, #59, .T. ) ;
#114 = DIRECTION ( 'NONE',  ( 1.000000000000000000, 0.000000000000000000, 0.000000000000000000 ) ) ;
#115 = PRODUCT_DEFINITION_SHAPE ( 'NONE', 'NONE',  #82 ) ;
#116 =( NAMED_UNIT ( * ) SI_UNIT ( $, .STERADIAN. ) SOLID_ANGLE_UNIT ( ) );
#117 = DATE_AND_TIME ( #26, #126 ) ;
#118 = CC_DESIGN_PERSON_AND_ORGANIZATION_ASSIGNMENT ( #197, #50, ( #151 ) ) ;
#119 = VERTEX_POINT ( 'NONE', #64 ) ;
#120 = VERTEX_POINT ( 'NONE', #106 ) ;
#121 = CIRCLE ( 'NONE', #181, 2.000000000000000000 ) ;
#122 = CARTESIAN_POINT ( 'NONE',  ( 1.149999999999999911, 0.000000000000000000, 1.500000000000003553 ) ) ;
#123 = CALENDAR_DATE ( 2022, 7, 7 ) ;
#124 = ORIENTED_EDGE ( 'NONE', *, *, #108, .F. ) ;
#125 = ORIENTED_EDGE ( 'NONE', *, *, #196, .F. ) ;
#126 = LOCAL_TIME ( 12, 36, 44.00000000000000000, #245 ) ;
#127 = CARTESIAN_POINT ( 'NONE',  ( 0.000000000000000000, 0.000000000000000000, 1.500000000000000000 ) ) ;
#128 = DIRECTION ( 'NONE',  ( 1.000000000000000000, 0.000000000000000000, 0.000000000000000000 ) ) ;
#129 = DIRECTION ( 'NONE',  ( 1.000000000000000000, 0.000000000000000000, 0.000000000000000000 ) ) ;
#130 = AXIS2_PLACEMENT_3D ( 'NONE', #18, #178, #128 ) ;
#131 = EDGE_CURVE ( 'NONE', #5, #177, #7, .T. ) ;
#132 = CARTESIAN_POINT ( 'NONE',  ( 0.000000000000000000, 0.000000000000000000, 1.500000000000000000 ) ) ;
#133 = PERSON ( 'NEURÈENÝ', 'NEURÈENÝ', 'NEURÈENÝ', ('NEURÈENÝ'), ('NEURÈENÝ'), ('NEURÈENÝ') ) ;
#134 = CARTESIAN_POINT ( 'NONE',  ( 0.000000000000000000, 0.000000000000000000, 1.500000000000000000 ) ) ;
#135 = SECURITY_CLASSIFICATION ( '', '', #176 ) ;
#136 = EDGE_CURVE ( 'NONE', #30, #177, #217, .T. ) ;
#137 = CARTESIAN_POINT ( 'NONE',  ( 0.000000000000000000, 0.000000000000000000, 126.5000000000000000 ) ) ;
#138 = EDGE_CURVE ( 'NONE', #120, #30, #248, .T. ) ;
#139 = DIRECTION ( 'NONE',  ( 1.000000000000000000, 0.000000000000000000, 0.000000000000000000 ) ) ;
#140 = TOROIDAL_SURFACE ( 'NONE', #54, 1.149999999999999911, 0.2000000000000000111 ) ;
#141 = SHAPE_DEFINITION_REPRESENTATION ( #115, #278 ) ;
#142 = ORIENTED_EDGE ( 'NONE', *, *, #255, .T. ) ;
#143 = APPROVAL_ROLE ( '' ) ;
#144 = CARTESIAN_POINT ( 'NONE',  ( -2.000000000000000000, 0.000000000000000000, 0.000000000000000000 ) ) ;
#145 = ORIENTED_EDGE ( 'NONE', *, *, #255, .F. ) ;
#146 = AXIS2_PLACEMENT_3D ( 'NONE', #63, #80, #299 ) ;
#147 = VERTEX_POINT ( 'NONE', #34 ) ;
#148 = EDGE_LOOP ( 'NONE', ( #9, #100, #218, #53 ) ) ;
#149 = EDGE_CURVE ( 'NONE', #177, #5, #300, .T. ) ;
#150 = FACE_BOUND ( 'NONE', #246, .T. ) ;
#151 = PRODUCT_DEFINITION_FORMATION_WITH_SPECIFIED_SOURCE ( 'LIBOVOLNÝ', '', #153, .NOT_KNOWN. ) ;
#152 = CARTESIAN_POINT ( 'NONE',  ( 0.000000000000000000, 0.000000000000000000, 1.500000000000000000 ) ) ;
#153 = PRODUCT ( 'c12f', 'c12f', '', ( #304 ) ) ;
#154 = FACE_OUTER_BOUND ( 'NONE', #270, .T. ) ;
#155 = DIRECTION ( 'NONE',  ( -0.000000000000000000, -0.000000000000000000, -1.000000000000000000 ) ) ;
#156 = CIRCLE ( 'NONE', #68, 2.000000000000000000 ) ;
#157 = AXIS2_PLACEMENT_3D ( 'NONE', #258, #214, #139 ) ;
#158 = CARTESIAN_POINT ( 'NONE',  ( 0.000000000000000000, 0.000000000000000000, 0.000000000000000000 ) ) ;
#159 = EDGE_CURVE ( 'NONE', #120, #57, #289, .T. ) ;
#160 =( NAMED_UNIT ( * ) PLANE_ANGLE_UNIT ( ) SI_UNIT ( $, .RADIAN. ) );
#161 = EDGE_LOOP ( 'NONE', ( #243, #67, #166, #73 ) ) ;
#162 = CARTESIAN_POINT ( 'NONE',  ( 1.149999999999999911, 0.000000000000000000, 1.700000000000007061 ) ) ;
#163 = CALENDAR_DATE ( 2022, 7, 7 ) ;
#164 = APPLICATION_PROTOCOL_DEFINITION ( 'international standard', 'config_control_design', 1994, #175 ) ;
#165 = AXIS2_PLACEMENT_3D ( 'NONE', #235, #23, #114 ) ;
#166 = ORIENTED_EDGE ( 'NONE', *, *, #138, .T. ) ;
#167 = APPROVAL ( #97, 'NEURÈENÝ' ) ;
#168 = COORDINATED_UNIVERSAL_TIME_OFFSET ( 1, 0, .AHEAD. ) ;
#169 = CARTESIAN_POINT ( 'NONE',  ( 0.000000000000000000, 0.000000000000000000, 126.5000000000000000 ) ) ;
#170 = CC_DESIGN_PERSON_AND_ORGANIZATION_ASSIGNMENT ( #292, #76, ( #151 ) ) ;
#171 = DIRECTION ( 'NONE',  ( -0.000000000000000000, -0.000000000000000000, -1.000000000000000000 ) ) ;
#172 = PERSON_AND_ORGANIZATION ( #133, #25 ) ;
#173 = CIRCLE ( 'NONE', #146, 0.9499999999999999556 ) ;
#174 = ORIENTED_EDGE ( 'NONE', *, *, #196, .T. ) ;
#175 = APPLICATION_CONTEXT ( 'configuration controlled 3d designs of mechanical parts and assemblies' ) ;
#176 = SECURITY_CLASSIFICATION_LEVEL ( 'unclassified' ) ;
#177 = VERTEX_POINT ( 'NONE', #282 ) ;
#178 = DIRECTION ( 'NONE',  ( 0.000000000000000000, 0.000000000000000000, 1.000000000000000000 ) ) ;
#179 = DIRECTION ( 'NONE',  ( 1.000000000000000000, 0.000000000000000000, 0.000000000000000000 ) ) ;
#180 = AXIS2_PLACEMENT_3D ( 'NONE', #183, #224, #179 ) ;
#181 = AXIS2_PLACEMENT_3D ( 'NONE', #93, #88, #286 ) ;
#182 = DIRECTION ( 'NONE',  ( 1.000000000000000000, 0.000000000000000000, 0.000000000000000000 ) ) ;
#183 = CARTESIAN_POINT ( 'NONE',  ( 0.000000000000000000, 0.000000000000000000, 0.000000000000000000 ) ) ;
#184 = DIRECTION ( 'NONE',  ( 1.000000000000000000, 0.000000000000000000, 0.000000000000000000 ) ) ;
#185 = AXIS2_PLACEMENT_3D ( 'NONE', #137, #284, #207 ) ;
#186 = DIRECTION ( 'NONE',  ( -0.000000000000000000, -0.000000000000000000, -1.000000000000000000 ) ) ;
#187 = FACE_OUTER_BOUND ( 'NONE', #27, .T. ) ;
#188 = PRODUCT_RELATED_PRODUCT_CATEGORY ( 'detail', '', ( #153 ) ) ;
#189 = DIRECTION ( 'NONE',  ( -0.000000000000000000, -0.000000000000000000, -1.000000000000000000 ) ) ;
#190 = CC_DESIGN_APPROVAL ( #52, ( #135 ) ) ;
#191 =( LENGTH_UNIT ( ) NAMED_UNIT ( * ) SI_UNIT ( .MILLI., .METRE. ) );
#192 = ORIENTED_EDGE ( 'NONE', *, *, #131, .T. ) ;
#193 = APPROVAL_STATUS ( 'not_yet_approved' ) ;
#194 = AXIS2_PLACEMENT_3D ( 'NONE', #201, #302, #84 ) ;
#195 = VERTEX_POINT ( 'NONE', #202 ) ;
#196 = EDGE_CURVE ( 'NONE', #29, #195, #305, .T. ) ;
#197 = PERSON_AND_ORGANIZATION ( #133, #25 ) ;
#198 = DIRECTION ( 'NONE',  ( 1.000000000000000000, 0.000000000000000000, -0.000000000000000000 ) ) ;
#199 = FACE_OUTER_BOUND ( 'NONE', #161, .T. ) ;
#200 = ORIENTED_EDGE ( 'NONE', *, *, #159, .T. ) ;
#201 = CARTESIAN_POINT ( 'NONE',  ( 0.000000000000000000, 0.000000000000000000, 1.500000000000000000 ) ) ;
#202 = CARTESIAN_POINT ( 'NONE',  ( 2.000000000000000000, 2.449293598294706414E-16, 0.000000000000000000 ) ) ;
#203 = CARTESIAN_POINT ( 'NONE',  ( 0.000000000000000000, 0.000000000000000000, 0.000000000000000000 ) ) ;
#204 = AXIS2_PLACEMENT_3D ( 'NONE', #228, #107, #225 ) ;
#205 = DIRECTION ( 'NONE',  ( 0.000000000000000000, 0.000000000000000000, 1.000000000000000000 ) ) ;
#206 = FACE_OUTER_BOUND ( 'NONE', #219, .T. ) ;
#207 = DIRECTION ( 'NONE',  ( -1.000000000000000000, 0.000000000000000000, 0.000000000000000000 ) ) ;
#208 = ADVANCED_FACE ( 'NONE', ( #298 ), #66, .F. ) ;
#209 = CIRCLE ( 'NONE', #111, 0.9499999999999999556 ) ;
#210 = DATE_AND_TIME ( #112, #47 ) ;
#211 = ADVANCED_FACE ( 'NONE', ( #103 ), #37, .T. ) ;
#212 = PERSON_AND_ORGANIZATION_ROLE ( 'creator' ) ;
#213 = TOROIDAL_SURFACE ( 'NONE', #130, 1.149999999999999911, 0.2000000000000000111 ) ;
#214 = DIRECTION ( 'NONE',  ( 0.000000000000000000, 0.000000000000000000, 1.000000000000000000 ) ) ;
#215 = DATE_AND_TIME ( #123, #96 ) ;
#216 = EDGE_LOOP ( 'NONE', ( #268, #101, #31, #174 ) ) ;
#217 = CIRCLE ( 'NONE', #204, 0.2000000000000000944 ) ;
#218 = ORIENTED_EDGE ( 'NONE', *, *, #70, .T. ) ;
#219 = EDGE_LOOP ( 'NONE', ( #238, #232 ) ) ;
#220 = ORIENTED_EDGE ( 'NONE', *, *, #136, .T. ) ;
#221 = MANIFOLD_SOLID_BREP ( 'Zaoblit1', #38 ) ;
#222 = ORIENTED_EDGE ( 'NONE', *, *, #108, .T. ) ;
#223 = APPROVAL_PERSON_ORGANIZATION ( #172, #167, #267 ) ;
#224 = DIRECTION ( 'NONE',  ( 0.000000000000000000, 0.000000000000000000, 1.000000000000000000 ) ) ;
#225 = DIRECTION ( 'NONE',  ( -1.000000000000000000, 1.224646799147351975E-16, 0.000000000000000000 ) ) ;
#226 = CARTESIAN_POINT ( 'NONE',  ( 2.000000000000000000, 2.449293598294706414E-16, 1.500000000000000000 ) ) ;
#227 = CC_DESIGN_SECURITY_CLASSIFICATION ( #135, ( #151 ) ) ;
#228 = CARTESIAN_POINT ( 'NONE',  ( -1.149999999999999911, 1.408343819019456028E-16, 1.700000000000007061 ) ) ;
#229 = CC_DESIGN_DATE_AND_TIME_ASSIGNMENT ( #237, #8, ( #82 ) ) ;
#230 = DIRECTION ( 'NONE',  ( 0.000000000000000000, 0.000000000000000000, 1.000000000000000000 ) ) ;
#231 = COORDINATED_UNIVERSAL_TIME_OFFSET ( 1, 0, .AHEAD. ) ;
#232 = ORIENTED_EDGE ( 'NONE', *, *, #251, .T. ) ;
#233 = APPLICATION_CONTEXT ( 'configuration controlled 3d designs of mechanical parts and assemblies' ) ;
#234 = CARTESIAN_POINT ( 'NONE',  ( 0.9499999999999999556, 1.163414459189985682E-16, 126.5000000000000000 ) ) ;
#235 = CARTESIAN_POINT ( 'NONE',  ( 0.000000000000000000, 0.000000000000000000, 0.000000000000000000 ) ) ;
#236 = AXIS2_PLACEMENT_3D ( 'NONE', #127, #35, #297 ) ;
#237 = DATE_AND_TIME ( #163, #240 ) ;
#238 = ORIENTED_EDGE ( 'NONE', *, *, #74, .T. ) ;
#239 = COORDINATED_UNIVERSAL_TIME_OFFSET ( 1, 0, .AHEAD. ) ;
#240 = LOCAL_TIME ( 12, 36, 44.00000000000000000, #91 ) ;
#241 = PERSON_AND_ORGANIZATION_ROLE ( 'classification_officer' ) ;
#242 = AXIS2_PLACEMENT_3D ( 'NONE', #152, #281, #256 ) ;
#243 = ORIENTED_EDGE ( 'NONE', *, *, #291, .F. ) ;
#244 = APPROVAL ( #283, 'NEURÈENÝ' ) ;
#245 = COORDINATED_UNIVERSAL_TIME_OFFSET ( 1, 0, .AHEAD. ) ;
#246 = EDGE_LOOP ( 'NONE', ( #192, #79 ) ) ;
#247 = ORIENTED_EDGE ( 'NONE', *, *, #291, .T. ) ;
#248 = LINE ( 'NONE', #85, #295 ) ;
#249 = APPROVAL_PERSON_ORGANIZATION ( #69, #244, #72 ) ;
#250 = DESIGN_CONTEXT ( 'detailed design', #233, 'design' ) ;
#251 = EDGE_CURVE ( 'NONE', #119, #288, #121, .T. ) ;
#252 = DIRECTION ( 'NONE',  ( -0.000000000000000000, -0.000000000000000000, -1.000000000000000000 ) ) ;
#253 = DIRECTION ( 'NONE',  ( 1.000000000000000000, 0.000000000000000000, -0.000000000000000000 ) ) ;
#254 = AXIS2_PLACEMENT_3D ( 'NONE', #169, #51, #198 ) ;
#255 = EDGE_CURVE ( 'NONE', #147, #5, #92, .T. ) ;
#256 = DIRECTION ( 'NONE',  ( 1.000000000000000000, 0.000000000000000000, 0.000000000000000000 ) ) ;
#257 = PERSON_AND_ORGANIZATION ( #133, #25 ) ;
#258 = CARTESIAN_POINT ( 'NONE',  ( 0.000000000000000000, 0.000000000000000000, 1.700000000000007061 ) ) ;
#259 = EDGE_CURVE ( 'NONE', #30, #147, #102, .T. ) ;
#260 = EDGE_LOOP ( 'NONE', ( #49, #247, #222, #10 ) ) ;
#261 = VECTOR ( 'NONE', #303, 1000.000000000000000 ) ;
#262 = DIRECTION ( 'NONE',  ( 1.000000000000000000, 0.000000000000000000, 0.000000000000000000 ) ) ;
#263 = CYLINDRICAL_SURFACE ( 'NONE', #185, 0.9499999999999999556 ) ;
#264 = PERSON_AND_ORGANIZATION_ROLE ( 'design_owner' ) ;
#265 = AXIS2_PLACEMENT_3D ( 'NONE', #77, #171, #78 ) ;
#266 = APPROVAL_PERSON_ORGANIZATION ( #275, #52, #143 ) ;
#267 = APPROVAL_ROLE ( '' ) ;
#268 = ORIENTED_EDGE ( 'NONE', *, *, #113, .F. ) ;
#269 = DATE_AND_TIME ( #94, #61 ) ;
#270 = EDGE_LOOP ( 'NONE', ( #296, #124, #142, #272 ) ) ;
#271 = ADVANCED_FACE ( 'NONE', ( #187 ), #140, .F. ) ;
#272 = ORIENTED_EDGE ( 'NONE', *, *, #149, .F. ) ;
#273 = AXIS2_PLACEMENT_3D ( 'NONE', #83, #104, #39 ) ;
#274 = ORIENTED_EDGE ( 'NONE', *, *, #131, .F. ) ;
#275 = PERSON_AND_ORGANIZATION ( #133, #25 ) ;
#276 = ORIENTED_EDGE ( 'NONE', *, *, #70, .F. ) ;
#277 = DIRECTION ( 'NONE',  ( 0.000000000000000000, 0.000000000000000000, 1.000000000000000000 ) ) ;
#278 = ADVANCED_BREP_SHAPE_REPRESENTATION ( 'c12f', ( #221, #165 ), #13 ) ;
#279 = PLANE ( 'NONE',  #3 ) ;
#280 = DIRECTION ( 'NONE',  ( 1.000000000000000000, 0.000000000000000000, 0.000000000000000000 ) ) ;
#281 = DIRECTION ( 'NONE',  ( -0.000000000000000000, -0.000000000000000000, -1.000000000000000000 ) ) ;
#282 = CARTESIAN_POINT ( 'NONE',  ( -1.149999999999999911, 1.408343819019456028E-16, 1.500000000000003553 ) ) ;
#283 = APPROVAL_STATUS ( 'not_yet_approved' ) ;
#284 = DIRECTION ( 'NONE',  ( -0.000000000000000000, -0.000000000000000000, -1.000000000000000000 ) ) ;
#285 = VECTOR ( 'NONE', #186, 1000.000000000000000 ) ;
#286 = DIRECTION ( 'NONE',  ( 1.000000000000000000, 0.000000000000000000, 0.000000000000000000 ) ) ;
#287 = DATE_TIME_ROLE ( 'classification_date' ) ;
#288 = VERTEX_POINT ( 'NONE', #21 ) ;
#289 = CIRCLE ( 'NONE', #273, 0.9499999999999999556 ) ;
#290 = FACE_OUTER_BOUND ( 'NONE', #95, .T. ) ;
#291 = EDGE_CURVE ( 'NONE', #57, #147, #45, .T. ) ;
#292 = PERSON_AND_ORGANIZATION ( #133, #25 ) ;
#293 = CARTESIAN_POINT ( 'NONE',  ( -0.9499999999999999556, 0.000000000000000000, 1.700000000000007061 ) ) ;
#294 = CYLINDRICAL_SURFACE ( 'NONE', #265, 0.9499999999999999556 ) ;
#295 = VECTOR ( 'NONE', #155, 1000.000000000000000 ) ;
#296 = ORIENTED_EDGE ( 'NONE', *, *, #136, .F. ) ;
#297 = DIRECTION ( 'NONE',  ( -1.000000000000000000, 0.000000000000000000, 0.000000000000000000 ) ) ;
#298 = FACE_OUTER_BOUND ( 'NONE', #55, .T. ) ;
#299 = DIRECTION ( 'NONE',  ( 1.000000000000000000, 0.000000000000000000, 0.000000000000000000 ) ) ;
#300 = CIRCLE ( 'NONE', #17, 1.149999999999999911 ) ;
#301 = EDGE_CURVE ( 'NONE', #288, #29, #41, .T. ) ;
#302 = DIRECTION ( 'NONE',  ( -0.000000000000000000, -0.000000000000000000, -1.000000000000000000 ) ) ;
#303 = DIRECTION ( 'NONE',  ( -0.000000000000000000, -0.000000000000000000, -1.000000000000000000 ) ) ;
#304 = MECHANICAL_CONTEXT ( 'NONE', #175, 'mechanical' ) ;
#305 = CIRCLE ( 'NONE', #28, 2.000000000000000000 ) ;
#306 = APPROVAL_DATE_TIME ( #210, #244 ) ;
#307 = ADVANCED_FACE ( 'NONE', ( #2 ), #263, .T. ) ;
ENDSEC;
END-ISO-10303-21;
